Oops, an error
Loading. Please wait.

Off The Ground bass

817 views 15 this week
3 commentsread comments
1 2 3 4 5
2 more votes to show rating
add to favorites
×
Save as Personal and add changes to this tab that will be seen only by you. Learn more ›
×
You can save this tab as Personal to edit and correct it or add notes. All changes will be seen only by you. Learn more »
launch autoscroll
font size
0
reset
guitar tuner
edit
Autoscroll
slow
fast
+/-
esc
set tempo
stop
Author
Difficulty
About this tab version
Full bass version of song, with easy bass part. Please rate or comment. Was this info helpful? Yes No
The Record Company - Off the ground
Standard Tuning (Bass)
tabbed by jjhand

[Intro and Verse]

G|--------------------------------------|
D|-0----0--0--3p0---/12----10----12\----|  repeated throughout
A|--------------------------------------|
E|--------------------------------------|

  guitars will do some chord changes but bass stays the same



[Prechorus Measure]

G|---------------------------------|
D|-0----3p0-3p0----3p0-3p0----0----|
A|---------------------------------|
E|---------------------------------|
   at 1:00 in song



[Chorus]

G|------------------------------|------------------------------|
D|-0---0-0--(0)-/12----10--12---|-0---0-0--(0)-/12----10--12---|
A|------------------------------|------------------------------|
E|------------------------------|------------------------------|

G|------------------------------|-------------------------------|
D|-0---0-0--(0)-/12----10--12---|-0----3p0-3p0----3p0-3p0----3--|
A|------------------------------|-------------------------------|
E|------------------------------|-------------------------------|

  repeat chorus 



[Verse 2]

G|--------------------------------------|
D|-0----0--0--3p0---/12----10----12\----|  repeated throughout
A|--------------------------------------|
E|--------------------------------------|



[Prechorus 2 Measure]

G|---------------------------------|
D|-0----3p0-3p0----3p0-3p0----0----|
A|---------------------------------|
E|---------------------------------|
   at 2:12 in song



[Chorus 2]

G|------------------------------|------------------------------|
D|-0---0-0--(0)-/12----10--12---|-0---0-0--(0)-/12----10--12---|
A|------------------------------|------------------------------|
E|------------------------------|------------------------------|

G|------------------------------|-------------------------------|
D|-0---0-0--(0)-/12----10--12---|-0----3p0-3p0----3p0-3p0----3--|
A|------------------------------|-------------------------------|
E|------------------------------|-------------------------------|

  repeat chorus 


[Bridge]
G|-----------------------------|
D|-0---0-0--0--3/5---5-5---3---|
A|-----------------------------|  play 4x
E|-----------------------------|


[Slide Solo]
G|------------------------------|------------------------------|
D|-0---0-0--(0)-/12----10--12---|-0---0-0--(0)-/12----10--12---|
A|------------------------------|------------------------------|
E|------------------------------|------------------------------|

G|------------------------------|-------------------------------|
D|-0---0-0--(0)-/12----10--12---|-0----3p0-3p0----3p0-3p0----3--|
A|------------------------------|-------------------------------|
E|------------------------------|-------------------------------|

repeat Solo riff



[Verse 3]

  stars at 3:16
G|--------------------------------------|
D|-0----0--0--3p0---/12----10----12\----|  repeated throughout
A|--------------------------------------|
E|--------------------------------------|



[Prechorus 2 Measure]

G|---------------------------------|
D|-0----3p0-3p0----3p0-3p0----0----|
A|---------------------------------|
E|---------------------------------|



[Chorus 2]

G|------------------------------|------------------------------|
D|-0---0-0--(0)-/12----10--12---|-0---0-0--(0)-/12----10--12---|
A|------------------------------|------------------------------|
E|------------------------------|------------------------------|

G|------------------------------|-------------------------------|
D|-0---0-0--(0)-/12----10--12---|-0----3p0-3p0----3p0-3p0----3--|
A|------------------------------|-------------------------------|
E|------------------------------|-------------------------------|

  repeat chorus to end



************************************

| (n) Ghost note - heard lightly at times
| h   Hammer-on
| p   Pull-off
| /   Slide up
| \   Slide down

************************************

            
            
Suggest correction
Creating personal tab
Creating personal tab
You can edit any tab online and save it as your Personal.

You can edit, replace or remove any tab part or add personal notes – all changes will be seen only by you.

Personal tabs can be accessed anytime from any device, even offline.
Learn more »
Give kudos to tab author, rate the tab!
1 2 3 4 5
comments
print report bad tab
3 comments total.
0 reply
doctormarie 10 Feb 27, 2017 08:07 PM

JJ Hand:

Thank you so very much for taking the time to do the bass tabs for this song!

This is going to be a huge help for me in learning bass!

And, thank you so much for caring!

Awesome!

0 reply
jjhand 18,531 Feb 28, 2017 12:29 AM

You're welcome. It is a good song, and it has the same rhythms throughout so it should not be too hard to play. Only other trick I see is slides to 12th fret but those just take practice to get timing right

0 reply
E._Espinoza 10 Apr 17, 2017 12:45 AM

👍

guest
You may want to rate the tab now too:
select rating
Wanna post a correction for this tab? Suggest correction