Oops, an error
Loading. Please wait.

Off The Ground Tab

version 2
version 2

Whole song

31 views 9 this week
no commentswrite comment
1 2 3 4 5
3 more votes to show rating
add to favorites
launch autoscroll
font size
0
reset
how to read this tab
guitar tuner
Autoscroll
slow
fast
+/-
esc
set tempo
stop
Help us to improve Ultimate-Guitar.com Take our survey!
×
Author
Tuning
D A D G B E
Off The Ground
The Record Company

Drop D 

Intro/Verse
Lead/Slide Guitar
e|--------------------------|
B|--------------------------|
G|--------------------------|
D|--------------------------|
A|--------------3s5--3-5/0--|
D|--0-0-0-3-0-0-------------|

Rhythm Guitar
e|--------------------------|
B|--------------------------|
G|--------------------------|
D|--0-0-0-0-0-0-0-0-0-0-3---|
A|--0-0-0-0-0-0-5-5-5-5-3---|
D|--0-0-0-0-0-0-0-0-0-0-3---|

Bass 
G|-----------------------------|
D|--0-0-0-3p0-0-10s12-10-s12s0-|
A|-----------------------------|
D|-----------------------------|

Verse Transition
e|----------------------------------|
B|----------------------------------|
G|----------------------------------|
D|--0-0-0-0-0-0-0-0-3-3-3-3-3-3-3-3-|
A|--0-0-0-0-0-0-0-0-3-3-3-3-3-3-3-3-|
D|--0-0-0-0-0-0-0-0-3-3-3-3-3-3-3-3-|

Guitar Chorus
e|--s10-10-10----s10-10-10----s10-10-10-|
B|--s10-10-10----s10-10-10----s10-10-10-|
G|--s11-11-11----s11-11-11----s11-11-11-|
D|--------------------------------------|
A|--------------------------------------|
D|--------------------------------------|
            WOO..       WOO..

e|--------------------------|
B|--------------------------|
G|--------------------------|
D|--3--3-00-3-3-3-0-3-3-0---|
A|--3--3-00-3-3-3-0-3-3-0---|
D|--3--3-00-3-3-3-0-3-3-0---|
    |  |
    ya |
       ya


Bass Chorus
G|---------------------------------|
D|--0-00--s12-10-12-0-00-s12-10-12-|
A|---------------------------------|
D|---------------------------------|

G|----------------------------------|
D|--0-00--s12-10-12-00-3-3-3-0-33-0-|
A|----------------------------------|
D|----------------------------------|

Bridge “Ahh let the truth be told”
Guitar
e|--------------------|
B|--------------------|
G|--------------------|
D|--0-0-0-0-3-5-5-5-3-|
A|--0-0-0-0-3-5-5-5-3-|
D|--0-0-0-0-3-5-5-5-3-|

Bass
G|--------------------|
D|--0-0-0-0-3-5-5-5-3-|
A|--------------------|
D|--------------------|
 
Guitar Solo
(Just A Bunch of Twitching)

e|--~10~-~10~-~10~----|
B|--~10~-~10~-~10~----|
G|--~11~-~11~-~10~----|
D|--------------------|
A|--------------------|
D|--------------------|



************************************

| /  Slide up
| p  Pull-off
| ~  Vibrato

************************************
Suggest correction
Give kudos to tab author, rate the tab!
1 2 3 4 5
comments
print report bad tab
guest
You may want to rate the tab now too:
select rating
Wanna post a correction for this tab? Suggest correction