Oops, an error
Loading. Please wait.

Upper Decker Tab

2,021 views 3 this week
1 commentread comment
1 2 3 4 5
x 5
add to favorites
launch autoscroll
font size
0
reset
how to read this tab
guitar tuner
Autoscroll
slow
fast
+/-
esc
set tempo
stop
Help us to improve Ultimate-Guitar.com Take our survey!
×
Author
Tuning
Tabbers playing skills
C F A# D# G C
intermediate ++
The Red Chord - Upper Decker - Clients

///////////////////////////////////////////////////////////////////
/This song is just like every other TRC song, and is in D standard/
///////////////////////////////////////////////////////////////////

Any problems or anything contact me at aghataora@hotmail.com

Video of me playing this at
http://www.metalinjection.net/tv/view/513/the-red-chord---upper-decker-%28guitar-cover%29

Intro
D||--------------------------------||
A||--------------------------------||
F||--------------------------------||
C||--------------------------------||
G||-2----5--4----------------------||
D||-0----3--2----------------------||

Verse
D||--------------------------------||
A||--------------------------------||
F||--------------5-----------------||
C||--3-4-3-4-----6-----------------|| x7
G||--5-6-5-6-----------------------||
D||--------------------------------||


D||--------------------------------||
A||--------------------------------||
F||-3---------3---3-3--------------||
C||-2---------2---2-2--------------||
G||---0-0-0-0--0-------------------||
D||--------------------------------||

D||-----------------------3---------||
A||-----------------------3---------||
F||-2--0--5-2-------------3---------||
C||-----------3--2-0------3---------||
G||------------------3-0------------||
D||---------------------------------||
                          NH

D||--------------------------------||
A||--------------------------------||
F||-----10*------------------------||
C||---------12*--------------------||   x8(?)
G||--------------------------------||
D||-0-0----------6h7p6h7---3--4----||

D||--------------------------------||
A||--------------------------------||
F||-------10*----------------------||
C||-----------12*------------------||
G||-2------------------------------||
D||-0-------------6h7p6h7---3--4---||

verse
D||--------------------------------||
A||--------------------------------||
F||--------------5-----------------||
C||--3-4-3-4-----6-----------------|| x7
G||--5-6-5-6-----------------------||
D||--------------------------------||


D||--------------------------------||
A||--------------------------------||
F||-3---------3---3-3--------------||
C||-2---------2---2-2--------------||
G||---0-0-0-0--0-------------------||
D||--------------------------------||


D||--------------------------------||
A||--------------------------------||
F||-2--0--5-2----------------------||
C||-----------3--2-0---------------|| x4
G||------------------3-0-----------||
D||--------------------------------||

D||--------------------------------||
A||--------------------------------||
F||-2--0--5-2----------------------||
C||-----------3--2-0---------------|| + improv
G||------------------3-0-----------||
D||--------------------------------||

D||-----------------------3---------||
A||-----------------------3---------||
F||-2--0--5-2-------------3---------||
C||-----------3--2-0------3---------||
G||------------------3-0------------||
D||---------------------------------||
                          NH

D||--------------------------------||
A||--------------------------------||
F||-----10*------------------------||
C||---------12*--------------------||   x4
G||--------------------------------||
D||-0-0----------6h7p6h7---3--4----||

D||-------------------------------------|--------------------------------||
A||-------------------------------------|--------------------------------||
F||-------------------------------------|---------8-9-10-9-10-11---------||
C||---------7-7---------8-8---------7-7-|--8-9-10----------------9-10-11-||
G||-0-0-5-5-----0-0-5-5-----0-0-5-5-----|--------------------------------||
D||-------------------------------------|--------------------------------||
                                          ^ fast

        repeat w/ pinches and w/ w/o muting

D||--------------------------------||
A||--------------------------------||
F||--------------------------------||
C||--------------------------------||
G||-4-5-6-3-4-7-4-5-6--2--5--4-----||
D||--------------------0--3--2-----||

D||--------------------------------||
A||--------------------------------||
F||--------------------------------||
C||--------------------------------||
G||-2-5-3-2-6-3-2-5-3--4-5-6-------||
D||-0-3-1-0-4-1-0-3-1--------------||


D||---------------------------3-----||
A||---------------------------3-----||
F||---------------------------3-----||
C||---------------------------3-----||
G||-3-4-7-----------2--5--4---3-----||
D||-----------------0--3--2---3-----||
                              NH
D||--------------------------------||
A||--------------------------------||
F||--------------------------------||
C||--------------------------------||
G||-2--5--4----9v----HOLD----------||
D||-0--3--2------------------------||

Clean section

D||-0-----0--------------0------------------------||
A||-0-------0------------0------------------------||
F||-11--------11---------11--------11---9---------||
C||-7------------7-------7-------7----7-----------||
G||-9--------------9-----9----9-------------------||
D||-----------------------------------------------||

D||-0-----0-------------0------------0------------||
A||-0-------0-----------0----------0--------------||
F||-9---------9---------9--------9----------------||
C||-7-----------7-------7------7------------------||
G||-8-------------8-----8----8--------------------||
D||-----------------------------------------------||

*SOLO*

Outro
D||--------------------------------||
A||--------------------------------||
F||-----12*------------------------||
C||---------10*--------------------|| x4
G||--------------2-----------------||
D||-0-0----------0-----------------||
                 .

D||--------------------------------||
A||--------------------------------||
F||-----12*------------------------||
C||---------10*--------------------|| x4
G||--------------2-----------------||
D||-0-0----------0-----------------||

D||--------------------------------||
A||--------------------------------||
F||--------------------------------||
C||--------------------------------||
G||--------------------------------||
D||--6h7p6h7-3-4-------------------||


D||--------------------------------|
A||--------------------------------|
F||--------------------------------|
C||--------------------------------|
G||--------------------------------|
D||--------------------------------|
Suggest correction
comments
print report bad tab
1 comment total.
+2 reply
ddranthony92 93 Jun 08, 2008 12:00 AM

Good shit, Thanks for tabbing it out.

guest
You may want to rate the tab now too:
select rating
Wanna post a correction for this tab? Suggest correction