Oops, an error
Loading. Please wait.

Acoustic Song Tab

version 1
version 1

Whole song

Interactive

40,690 views 12 this week
19 commentsread comments
1 2 3 4 5
accurate
x 22
add to favorites
launch autoscroll
font size
0
reset
how to read this tab
guitar tuner
Autoscroll
slow
fast
+/-
esc
set tempo
stop
Help us to improve Ultimate-Guitar.com Take our survey!
×
Author
Difficulty
intermediate
-------------------------------------------------------------------------
              The Acoustic Song - The Red Jumpsuit Apparatus
-------------------------------------------------------------------------
Tabbed by: me
Email:

Tuning:DADGBe

 Intro(Acoustic):

e|-------------------------------------------------------------------------|
B|-------------------------------------------------------------------------|
G|-------------------------------------------------------------------------|
D|--3--3-3-3-3-3h5-5-5-5-5-3--3-3-3-3-3--3-3-3-3---------------------------|
A|--3--3-3-3-3-3-3-3-3-3-3-3--3-3-3-3-3--3-3-3-3---------------------------|
D|--3--3-3-3-3-3-3-3-3-3-3-3--3-3-3-3-3--3-3-3-3---------------------------|

e|-------------------------------------------------------------------------|
B|-------------------------------------------------------------------------|
G|-----------------------------------5--3--2-------------------------------|
D|--5--5-5-5-5-5--5-5-5-5-5--5-5-5-5-5--0--0-------------------------------|
A|--3--3-3-3-3-3--3-3-3-3-3--3-3-3-3-3--0--0-------------------------------|
D|-------------------------------------------------------------------------|

e|-------------------------------------------------------------------------|
B|-------------------------------------------------------------------------|
G|-------------------------------------------------------------------------|
D|--0--0-0-0-0-2--2-2-2-2-2h3-3-3-3-3-2--2-2-2-2---------------------------|
A|--0--0-0-0-0-0--0-0-0-0-0-0-0-0-0-0-0--0-0-0-0---------------------------|
D|--0--0-0-0-0-0--0-0-0-0-0-0-0-0-0-0-0--0-0-0-0---------------------------|

e|-------------------------------------------------------------------------|
B|-------------------------------------------------------------------------|
G|-------------------------------------------------------------------------|
D|--8--8-8-8-8-8--8-8-8-8-10--10-10-10-10-10--10-10-10-10------------------|
A|--8--8-8-8-8-8--8-8-8-8-10--10-10-10-10-10--10-10-10-10------------------|
D|--8--8-8-8-8-8--8-8-8-8-10--10-10-10-10-10--10-10-10-10------------------|


 Verse(x4)(Acoustic)

e|-------------------------------------------------------------------|
B|-------------------------------------------------------------------|
G|-------------5--5-5-5-5------------5--5-5-5-5------------2--2-2-2-2|
D|--3--3-3-3-3-3--3-3-3-3-5--5-5-5-5-5--5-5-5-5-0--0-0-0-0-0--0-0-0-0|
A|--3--3-3-3-3-3--3-3-3-3-3--3-3-3-3-3--3-3-3-3-0--0-0-0-0-0--0-0-0-0|
D|--3--3-3-3-3-3--3-3-3-3-----------------------0--0-0-0-0-0--0-0-0-0|

e|----------------------|
B|----------------------|
G|----------------------|
D|-8--8-8-8-8-8--8-8-8-8|
A|-8--8-8-8-8-8--8-8-8-8|
D|-8--8-8-8-8-8--8-8-8-8|

 When I see your smile,
 tears roll down my face.
 I can't replace.
 And now that I am stong I have figured out.
 How this world turns cold and it breaks through my soul and I know,
 I'll find deep inside me, I can be the one...

 Chorus (Acoustic)

e|--------------------------------------------------|
B|--------------------------------------------------|
G|--------------------------------------------------|
D|--10--------------10--------------0--------------8|
A|--10--------------10--------------0--------------8|
D|--10--------------10--------------0--------------8|

e|-----------------------------------------------------|
B|-----------------------------------------------------|
G|-----------------------------------------------------|
D|--3-3-3--------------10--------------0--------------8|
A|--3-3-3--------------10--------------0--------------8|
D|--3-3-3--------------10--------------0--------------8|

 I will never let you fall. I'll stand up for you forever.
 I'll be there for you through it all. Even if saving you sends me to heaven

 Intro(Acoustic)

e|-------------------------------------------------------------------------|
B|-------------------------------------------------------------------------|
G|-------------------------------------------------------------------------|
D|--3--3-3-3-3-3h5-5-5-5-5-3--3-3-3-3-3--3-3-3-3---------------------------|
A|--3--3-3-3-3-3-3-3-3-3-3-3--3-3-3-3-3--3-3-3-3---------------------------|
D|--3--3-3-3-3-3-3-3-3-3-3-3--3-3-3-3-3--3-3-3-3---------------------------|

e|-------------------------------------------------------------------------|
B|-------------------------------------------------------------------------|
G|-----------------------------------5--3--2-------------------------------|
D|--5--5-5-5-5-5--5-5-5-5-5--5-5-5-5-5--0--0-------------------------------|
A|--3--3-3-3-3-3--3-3-3-3-3--3-3-3-3-3--0--0-------------------------------|
D|-------------------------------------------------------------------------|

e|-------------------------------------------------------------------------|
B|-------------------------------------------------------------------------|
G|-------------------------------------------------------------------------|
D|--0--0-0-0-0-2--2-2-2-2-2h3-3-3-3-3-2--2-2-2-2---------------------------|
A|--0--0-0-0-0-0--0-0-0-0-0-0-0-0-0-0-0--0-0-0-0---------------------------|
D|--0--0-0-0-0-0--0-0-0-0-0-0-0-0-0-0-0--0-0-0-0---------------------------|

e|-------------------------------------------------------------------------|
B|-------------------------------------------------------------------------|
G|-------------------------------------------------------------------------|
D|--8--8-8-8-8-8--8-8-8-8-10--10-10-10-10-10--10-10-10-10------------------|
A|--8--8-8-8-8-8--8-8-8-8-10--10-10-10-10-10--10-10-10-10------------------|
D|--8--8-8-8-8-8--8-8-8-8-10--10-10-10-10-10--10-10-10-10------------------|

 Verse(x2)(Acoustic)

e|-------------------------------------------------------------------|
B|-------------------------------------------------------------------|
G|-------------5--5-5-5-5------------5--5-5-5-5------------2--2-2-2-2|
D|--3--3-3-3-3-3--3-3-3-3-5--5-5-5-5-5--5-5-5-5-0--0-0-0-0-0--0-0-0-0|
A|--3--3-3-3-3-3--3-3-3-3-3--3-3-3-3-3--3-3-3-3-0--0-0-0-0-0--0-0-0-0|
D|--3--3-3-3-3-3--3-3-3-3-----------------------0--0-0-0-0-0--0-0-0-0|

e|----------------------|
B|----------------------|
G|----------------------|
D|-8--8-8-8-8-8--8-8-8-8|
A|-8--8-8-8-8-8--8-8-8-8|
D|-8--8-8-8-8-8--8-8-8-8|

 Seasons are changing, and waves are crashing, and stars are falling all for us.
 Days grow longer, and nights grow shorter. I can show you I'll be the one.

 Chorus (Acoustic)

e|--------------------------------------------------|
B|--------------------------------------------------|
G|--------------------------------------------------|
D|--10--------------10--------------0--------------8|
A|--10--------------10--------------0--------------8|
D|--10--------------10--------------0--------------8|

e|-----------------------------------------------------|
B|-----------------------------------------------------|
G|-----------------------------------------------------|
D|--3-3-3--------------10--------------0--------------8|
A|--3-3-3--------------10--------------0--------------8|
D|--3-3-3--------------10--------------0--------------8|

 Bridge:

e|---------------------------------------------------------------------------|
B|---------------------------------------------------------------------------|
G|---------------------------------------------------------------------------|
D|--3--3-3-3-3-3--3-3-3-3-3--3-3-3-3-3--3-3-3-3------------------------------|
A|--3--3-3-3-3-3--3-3-3-3-3--3-3-3-3-3--3-3-3-3------------------------------|
D|--3--3-3-3-3-3--3-3-3-3-3--3-3-3-3-3--3-3-3-3------------------------------|
 Cause your my...
e|-------------------------------------------------------------------------|
B|-------------------------------------------------------------------------|
G|-------------------------------------------------------------------------|
D|--5--5-5-5-5-5--5-5-5-5-5--5-5-5-5-5--5-5-5-5----------------------------|
A|--3--3-3-3-3-3--3-3-3-3-3--3-3-3-3-3--3-3-3-3----------------------------|
D|-------------------------------------------------------------------------|
 Your my...myeeieei
e|---------------------------------------------------------------------------|
B|---------------------------------------------------------------------------|
G|---------------------------------------------------------------------------|
D|--0--0-0-0-0-0--0-0-0-0-0--0-0-0-0-0--0-0-0-0------------------------------|
A|--0--0-0-0-0-0--0-0-0-0-0--0-0-0-0-0--0-0-0-0------------------------------|
D|--0--0-0-0-0-0--0-0-0-0-0--0-0-0-0-0--0-0-0-0------------------------------|
 My true love, My whole heart...
e|---------------------------------------------------------------------------|
B|---------------------------------------------------------------------------|
G|---------------------------------------------------------------------------|
D|--8--8-8-8-8-8--8-8-8-8-10--10-10-10-10-10--10-10-10-10--------------------|
A|--8--8-8-8-8-8--8-8-8-8-10--10-10-10-10-10--10-10-10-10--------------------|
D|--8--8-8-8-8-8--8-8-8-8-10--10-10-10-10-10--10-10-10-10--------------------|
 Please don't throw that away...
e|---------------------------------------------------------------------------|
B|---------------------------------------------------------------------------|
G|---------------------------------------------------------------------------|
D|--3--3-3-3-3-3--3-3-3-3-3--3-3-3-3-3--3-3-3-3------------------------------|
A|--3--3-3-3-3-3--3-3-3-3-3--3-3-3-3-3--3-3-3-3------------------------------|
D|--3--3-3-3-3-3--3-3-3-3-3--3-3-3-3-3--3-3-3-3------------------------------|
 Cause I'm here, here...
e|-------------------------------------------------------------------------|
B|-------------------------------------------------------------------------|
G|-------------------------------------------------------------------------|
D|--5--5-5-5-5-5--5-5-5-5-5--5-5-5-5-5--5-5-5-5----------------------------|
A|--3--3-3-3-3-3--3-3-3-3-3--3-3-3-3-3--3-3-3-3----------------------------|
D|-------------------------------------------------------------------------|
 For you...
e|---------------------------------------------------------------------------|
B|---------------------------------------------------------------------------|
G|---------------------------------------------------------------------------|
D|--0--0-0-0-0-0--0-0-0-0-0--0-0-0-0-0--0-0-0-0------------------------------|
A|--0--0-0-0-0-0--0-0-0-0-0--0-0-0-0-0--0-0-0-0------------------------------|
D|--0--0-0-0-0-0--0-0-0-0-0--0-0-0-0-0--0-0-0-0------------------------------|
 Please don't walk away and...
 (Distortion)
e|---------------------------------------------|
B|---------------------------------------------|
G|---------------------------------------------|
D|--8-8---8-8---10--10-10-10-10-10--10-10-10-10|
A|--8-8---8-8---10--10-10-10-10-10--10-10-10-10|
D|--8-8---8-8---10--10-10-10-10-10--10-10-10-10|
 Please tell me you'll stay...

e|--------------------------------------------------------------|
B|--------------------------------------------------------------|
G|--------------------------------------------------------------|
D|--3--3-3-3-3-3--3-3-3-3-3--3-3-3-3-3--3-3-3-3-----------------|
A|--3--3-3-3-3-3--3-3-3-3-3--3-3-3-3-3--3-3-3-3-----------------|
D|--3--3-3-3-3-3--3-3-3-3-3--3-3-3-3-3--3-3-3-3--  ...aaaayyyy--|                        wooaahohh...

e|-------------------------------------------------------------------------|
B|-------------------------------------------------------------------------|
G|--5--5-5-5-5-5--5-5-5-5-5--5-5-5-5-5--5-5-5-5----------------------------|
D|--5--5-5-5-5-5--5-5-5-5-5--5-5-5-5-5--5-5-5-5----------------------------|
A|--3--3-3-3-3-3--3-3-3-3-3--3-3-3-3-3--3-3-3-3----------------------------|
D|-------------------------------------------------------------------------|
 ...ooohhoohhh                       staaaayyyyayyy...

e|-------------------------------------------------------------------------|
B|-------------------------------------------------------------------------|
G|-------------------------------------------------------------------------|
D|--0--0-0-0-0-0--0-0-0-0-0--0-0-0-0-0--0-0-0-0----------------------------|
A|--0--0-0-0-0-0--0-0-0-0-0--0-0-0-0-0--0-0-0-0----------------------------|
D|--0--0-0-0-0-0--0-0-0-0-0--0-0-0-0-0--0-0-0-0----------------------------|
 ...aayyyayyy             woahoohhwoahooo...

e|---------------------------------------------------------------------------|
B|---------------------------------------------------------------------------|
G|---------------------------------------------------------------------------|
D|--8--8-8-8-8-8--8-8-8-8-10--10-10-10-10-10--10-10-10-10--------------------|
A|--8--8-8-8-8-8--8-8-8-8-10--10-10-10-10-10--10-10-10-10--------------------|
D|--8--8-8-8-8-8--8-8-8-8-10--10-10-10-10-10--10-10-10-10--------------------|
 ...wooooaahhhhh          woooaahh...

Post Bridge(x2):

e|-------------------------------------------------------------------|
B|-------------------------------------------------------------------|
G|------------------------5--5-5-5-5-5--5-5-5-5----------------------|
D|--3--3-3-3-3-3--3-3-3-3-5--5-5-5-5-5--5-5-5-5-0--0-0-0-0-0--0-0-0-0|
A|--3--3-3-3-3-3--3-3-3-3-3--3-3-3-3-3--3-3-3-3-0--0-0-0-0-0--0-0-0-0|
D|--3--3-3-3-3-3--3-3-3-3-----------------------0--0-0-0-0-0--0-0-0-0|

e|----------------------|
B|----------------------|
G|----------------------|
D|-8--8-8-8-8-8--8-8-8-8|
A|-8--8-8-8-8-8--8-8-8-8|
D|-8--8-8-8-8-8--8-8-8-8|

 Use me as you will, pull my strings just for a thrill.
 And I know I'll be okay, though my scars are turning gray(Gray).

 End Chorus(x4)

e|-------------------------------------------------------------------|
B|-------------------------------------------------------------------|
G|------------------------5--5-5-5-5-5--5-5-5-5----------------------|
D|--3--3-3-3-3-3--3-3-3-3-5--5-5-5-5-5--5-5-5-5-0--0-0-0-0-0--0-0-0-0|
A|--3--3-3-3-3-3--3-3-3-3-3--3-3-3-3-3--3-3-3-3-0--0-0-0-0-0--0-0-0-0|
D|--3--3-3-3-3-3--3-3-3-3-----------------------0--0-0-0-0-0--0-0-0-0|

e|----------------------|
B|----------------------|
G|----------------------|
D|-8--8-8-8-8-8--8-8-8-8|
A|-8--8-8-8-8-8--8-8-8-8|
D|-8--8-8-8-8-8--8-8-8-8|

 Outro(x2):

e|-------------------------------------------------------------------|
B|-------------------------------------------------------------------|
G|------------------------5--5-5-5-5-5--5-5-5-5----------------------|
D|--3--3-3-3-3-3--3-3-3-3-5--5-5-5-5-5--5-5-5-5-0--0-0-0-0-0--0-0-0-0|
A|--3--3-3-3-3-3--3-3-3-3-3--3-3-3-3-3--3-3-3-3-0--0-0-0-0-0--0-0-0-0|
D|--3--3-3-3-3-3--3-3-3-3-----------------------0--0-0-0-0-0--0-0-0-0|

e|----------------------|
B|----------------------|
G|----------------------|
D|-8--8-8-8-8-8--8-8-8-8|
A|-8--8-8-8-8-8--8-8-8-8|
D|-8--8-8-8-8-8--8-8-8-8|

 The End! Please enjoy it folks!


| /  slide up
| \  slide down
| h  hammer-on
| p  pull-off
| ~  vibrato
| +  harmonic
| x  Mute note
===============================================================================
Suggest correction
What's this?
You can suggest a correction to this tab. Community and Mods will review your correction and vote to approve or reject it.
comments
print report bad tab
19 comments total. Showing first comments.
0 reply
buried_a_lie 39 wrote on July 24 2006, 01:29 am

good tab except for one part in the chorus its supposed to be:

Chorus (Acoustic)

e|--------------------------------------------------|
B|--------------------------------------------------|
G|--------------------------------------------------|
D|--3---------------10--------------0--------------8|
A|--3---------------10--------------0--------------8|
D|--3---------------10--------------0--------------8|
^ you had 10's but good job otherwise

-1 reply
buried_a_lie 39 wrote on July 24 2006, 01:30 am

edit* you had 10's where i placed the 3's

-1 reply
borrizle 88 wrote on July 25 2006, 12:12 pm

this tab is freakin awesome. good work.

guest
You may want to rate the tab now too:
select rating
Please do not post tabs as comments. Select "correction" instead!