Oops, an error
Loading. Please wait.

Angels Cry Tab

version 2
version 2

Intro

Whole song

7,451 views 1 this week
no commentswrite comment
1 2 3 4 5
2 more votes to show rating
add to favorites
launch autoscroll
font size
0
reset
how to read this tab
guitar tuner
Autoscroll
slow
fast
+/-
esc
set tempo
stop
Help us to improve Ultimate-Guitar.com Take our survey!
×
Difficulty
novice
Okay I'm pretty sure that the intro is played with a bass and a guitar but if you just 
the e string down to c and the a up to c itll sound the same


E|----------------------------------------------------------------|
B|----------------------------------------------------------------|
G|----------------------------------------------------------------|
D|-----2-2---2-2---2-2---2-2--------------------------------------| X2
C|---0--0-0-0-0-0-0-0-0-0-0-0-------------------------------------|
C|-0-------0-----3-----4------------------------------------------|

E|----------------------------------------------------------------|
B|----------------------------------------------------------------|
G|----------------------------------------------------------------|
D|----5-3-2-3-2---5-2---5-2---10-9-12-14-14--9-7--10-9------------|
C|---0-0-0-0-0-0-0-0-0-0-0-0-0--0-0---------0-0--0--0-------------|
C|--0-----------0-----0-----0--------------0----0-----------------|

Then it goes into some chords and just repeats the intro but i'm 98% tsurethis
is right kinda just doin it on how i remeber it but i'll double check it and
put a better one on later if needed any thoughts or comments email them to
 someone else
Suggest correction
Give kudos to tab author, rate the tab!
1 2 3 4 5
comments
print report bad tab
guest
You may want to rate the tab now too:
select rating
Wanna post a correction for this tab? Suggest correction