Oops, an error
Loading. Please wait.

Angels Cry Tab

version 3
version 3

Intro

Whole song

6,190 views 3 this week
1 commentread comment
1 2 3 4 5
accurate
x 3
add to favorites
launch autoscroll
font size
0
reset
how to read this tab
guitar tuner
Tab Pro tools
  • play this tab
  • loop segment
  • change instrument
  • show fretboard
  • metronome
×
Best way to learn
"Angels Cry"
Autoscroll
slow
fast
+/-
esc
set tempo
stop
Contributor
Difficulty
novice
Here's the intro

 X2

e----------------------------------------------------------|
B----------------------------------------------------------|
G----------------------------------------------------------|
D-----2---2-------2---2--------2---2-------2---2-----------|
A---3---3---3---3---3---3----3---3---3---3---3---3---------|
E-3-----------3------------0-----------1-------------------|

e----------------------------------------------------------|
B----------------------------------------------------------|
G----------------------------------------------------------|
D----5---3---2---3---2-------5---2--------5---2------------|
A--3---3---3---3---3---3---3---3---3----3---3---3----------|
E-3----------------------0------------0--------------------|

e-----------------0-0----------------------------------|
B------1---0----3--------------------------------------|
G--------0---0-----------------------------------------|
D------------------------------------------------------|
A---3--------------------------------------------------|
E-3----------------------------------------------------|
comments
We did not receive enough feedback on this tab! Please rate:
print report bad tab
1 2 3 4 5
1 comment total.
0 reply
wiritosk8 wrote on November 19 2007, 12:26 pm

 
e----------------------------------------------------------|
B----------------------------------------------------------|
G----------------------------------------------------------|
D----5---3---2---3---2-------5---2--------5---2------------|
A--3---3---3---3---3-------3---3--------3---3--------------|
E-3----------------------0------------0--------------------|

e----------------------------------------------------------|
B----------------------------------------------------------|
G------5---4---7-9-9-------4---2------5---4----------------|
D----------------------------------------------------------|
A----3---3---3-----------3---3------3---3------------------|
E---0-------------------0----------0-----------------------|


I want to post or [tab]
guest
You may want to rate the tab now too:
select rating
Please do not post tabs as comments. Select "correction" instead!