Oops, an error
Loading. Please wait.

Angels Cry Tab

version 2
version 2

Whole song

18,606 views 3 this week
no commentswrite comment
1 2 3 4 5
x 10
add to favorites
launch autoscroll
font size
0
reset
how to read this tab
guitar tuner
Autoscroll
slow
fast
+/-
esc
set tempo
stop
Help us to improve Ultimate-Guitar.com Take our survey!
×
Author
Difficulty
intermediate
this is pretty much perfect, just tune the low E down to a C, and the rest is standard

INTRO

E|-------------------------------------------------|
B|-------------------------------------------------|
G|-------------------------------------------------|
D|-----2---2-------2---2-------2---2-------2---2---|
A|---3---3---3---3---3---3---3---3---3---3---3---3-|
C|-0-----------0-----------4-----------5-----------|

E|-------------------------------------------------|
B|-------------------------------------------------|
G|-------------------------------------------------|
D|-----2---2-------2---2-------2---2-------2---2---|
A|---3---3---3---3---3---3---3---3---3---3---3---3-|
C|-0-----------0-----------4-----------5-----------|

E|-------------------------------------------------|
B|-------------------------------------------------|
G|-----0-----------------------0-----------0-------|
D|---------3---2---3---2-----------2-----------2---|
A|---3---3---3---3---3---3---3---3---3---3---3---3-|
C|-0-----------------------0-----------0-----------|

E|-----------------0---0---------------------------|
B|-----1---0---3---------------0-----------1---0---|
G|---------------------------------2---------------|
D|-------------------------------------------------|
A|---3---3---3---3---3---3---3---3---3---3---3---3-|
C|-0-----------------------0-----------0-----------|

VERSE

E|-------------------------------------------------|
B|-------------------------------------------------|
G|-------------------------------------------------|
D|-----2---2-------2---2-------2---2-------2---2---|
A|---3---3---3---3---3---3---3---3---3---3---3---3-|
C|-0-----------0-----------4-----------5-----------|

  well it's hard to explain but i'll try if you

E|-------------------------------------------------|
B|-------------------------------------------------|
G|-------------------------------------------------|
D|-----2---2-------2---2-------2---2-------2---2---|
A|---3---3---3---3---3---3---3---3---3---3---3---3-|
C|-0-----------0-----------4-----------5-----------|

  let me

E|-------------------------------------------------|
B|-------------------------------------------------|
G|-------------------------------------------------|
D|-----2---2-------2---2-------2---2-------2---2---|
A|---3---3---3---3---3---3---3---3---3---3---3---3-|
C|-0-----------0-----------4-----------5-----------|

  well its hard to sustain i'll cry if you

E|-------------------------------------------------|
B|-------------------------------------------------|
G|-------------------------------------------------|
D|-----2---2-------2---2-------2---2-------2---2---|
A|---3---3---3---3---3---3---3---3---3---3---3---3-|
C|-0-----------0-----------4-----------5-----------|

  let me

E|-------------------------------------------------|
B|-------------------------------------------------|
G|-------------------------------------------------|
D|-----2---2-------2---2-------2---2-------2---2---|
A|---3---3---3---3---3---3---3---3---3---3---3---3-|
C|-0-----------0-----------4-----------5-----------|

  this doesn't change the way i feel about you or you're place in 

E|-------------------------------------------------|
B|-------------------------------------------------|
G|-------------------------------------------------|
D|-----2---2-------2---2-------2---2-------2---2---|
A|---3---3---3---3---3---3---3---3---3---3---3---3-|
C|-0-----------0-----------4-----------5-----------|

  life..       (please...   don't...    cry)

E|-------------------------------------------------|
B|-------------------------------------------------|
G|-------------------------------------------------|
D|-----2---2-------2---2-------2---2-------2---2---|
A|---3---3---3---3---3---3---3---3---3---3---3---3-|
C|-0-----------0-----------4-----------5-----------|

 can't you see i'm dying here a shot of broken heart that is 

E|-------------------------------------------------|
B|-------------------------------------------------|
G|-------------------------------------------------|
D|-----2---2-------2---2-------2---2-------2---2---|
A|---3---3---3---3---3---3---3---3---3---3---3---3-|
C|-0-----------0-----------4-----------5-----------|

  chased with fear?

CHORUS

E|-0---0-0-0-0-|-0---0-0-0-0-|-0---0-0-0-0-|-0---0-0-0-0-|
B|-1---1-1-1-1-|-1---1-1-1-1-|-1---1-1-1-1-|-1---1-1-1-1-|
G|-0---0-0-0-0-|-0---0-0-0-0-|-0---0-0-0-0-|-0---0-0-0-0-|
D|-2---2-2-2-2-|-2---2-2-2-2-|-2---2-2-2-2-|-2---2-2-2-2-|
A|-3---3-3-3-3-|-3---3-3-3-3-|-3---3-3-3-3-|-3---3-3-3-3-|
C|-------------|-------------|-------------|-------------|

   an...         gels...       cry                   when

E|-0---0-0-0-0-|-0---0-0-0-0-|-0---0-0-0-0-|-0---0-0-0-0-|
B|-0---0-0-0-0-|-0---0-0-0-0-|-0---0-0-0-0-|-0---0-0-0-0-|
G|-0---0-0-0-0-|-0---0-0-0-0-|-0---0-0-0-0-|-0---0-0-0-0-|
D|-2---2-2-2-2-|-2---2-2-2-2-|-2---2-2-2-2-|-2---2-2-2-2-|
A|-3---3-3-3-3-|-3---3-3-3-3-|-3---3-3-3-3-|-3---3-3-3-3-|
C|-------------|-------------|-------------|-------------|

  stars          col...         lide...      i can't

E|-3---3-3-3-3-|-3---3-3-3-3-|-3---3-3-3-3-|-3---3-3-3-3-|
B|-0---0-0-0-0-|-0---0-0-0-0-|-0---0-0-0-0-|-0---0-0-0-0-|
G|-0---0-0-0-0-|-0---0-0-0-0-|-0---0-0-0-0-|-0---0-0-0-0-|
D|-0---0-0-0-0-|-0---0-0-0-0-|-0---0-0-0-0-|-0---0-0-0-0-|
A|-2---2-2-2-2-|-2---2-2-2-2-|-2---2-2-2-2-|-2---2-2-2-2-|
C|-------------|-------------|-------------|-------------|

  eat            and i can't       breathe

E|-1---1-1-1-1-|-1---1-1-1-1-|-3---3-3-3-3-|-3---3-3-3-3-|
B|-1---1-1-1-1-|-1---1-1-1-1-|-0---0-0-0-0-|-0---0-0-0-0-|
G|-2---2-2-2-2-|-2---2-2-2-2-|-0---0-0-0-0-|-0---0-0-0-0-|
D|-3---3-3-3-3-|-3---3-3-3-3-|-0---0-0-0-0-|-0---0-0-0-0-|
A|-3---3-3-3-3-|-3---3-3-3-3-|-2---2-2-2-2-|-2---2-2-2-2-|
C|-------------|-------------|-------------|-------------|

  i wouldn't want it any       other way

INTERLUDE

E|-------------------------------------------------|
B|-------------------------------------------------|
G|-------------------------------------------------|
D|-----2---2-------2---2-------2---2-------2---2---|
A|---3---3---3---3---3---3---3---3---3---3---3---3-|
C|-0-----------0-----------4-----------5-----------|

E|-------------------------------------------------|
B|-------------------------------------------------|
G|-----------------------------0-----------0h2p0---|
D|-----2---2-------2---2-----------2-------------2-|
A|---3---3---3---3---3---3---3---3---3---3---------|
C|-0-----------0-----------0-----------0-----------|

VERSE

E|-------------------------------------------------|
B|-------------------------------------------------|
G|-------------------------------------------------|
D|-----2---2-------2---2-------2---2-------2---2---|
A|---3---3---3---3---3---3---3---3---3---3---3---3-|
C|-0-----------0-----------4-----------5-----------|

  intentions that were pure have turned obscure seconds into

E|-------------------------------------------------|
B|-------------------------------------------------|
G|-------------------------------------------------|
D|-----2---2-------2---2-------2---2-------2---2---|
A|---3---3---3---3---3---3---3---3---3---3---3---3-|
C|-0-----------0-----------4-----------5-----------|

  hours, minutes into years don't ask me

E|-------------------------------------------------|
B|-------------------------------------------------|
G|-------------------------------------------------|
D|-----2---2-------2---2-------2---2-------2---2---|
A|---3---3---3---3---3---3---3---3---3---3---3---3-|
C|-0-----------0-----------4-----------5-----------|

  why          (please     don't       cry) i can't 

E|-------------------------------------------------|
B|-------------------------------------------------|
G|-------------------------------------------------|
D|-----2---2-------2---2-------2---2-------2---2---|
A|---3---3---3---3---3---3---3---3---3---3---3---3-|
C|-0-----------0-----------4-----------5-----------|

  tell you lies

CHORUS 2x

E|-0---0-0-0-0-|-0---0-0-0-0-|-0---0-0-0-0-|-0---0-0-0-0-|
B|-1---1-1-1-1-|-1---1-1-1-1-|-1---1-1-1-1-|-1---1-1-1-1-|
G|-0---0-0-0-0-|-0---0-0-0-0-|-0---0-0-0-0-|-0---0-0-0-0-|
D|-2---2-2-2-2-|-2---2-2-2-2-|-2---2-2-2-2-|-2---2-2-2-2-|
A|-3---3-3-3-3-|-3---3-3-3-3-|-3---3-3-3-3-|-3---3-3-3-3-|
C|-------------|-------------|-------------|-------------|

   an...         gels...       cry                   when

E|-0---0-0-0-0-|-0---0-0-0-0-|-0---0-0-0-0-|-0---0-0-0-0-|
B|-0---0-0-0-0-|-0---0-0-0-0-|-0---0-0-0-0-|-0---0-0-0-0-|
G|-0---0-0-0-0-|-0---0-0-0-0-|-0---0-0-0-0-|-0---0-0-0-0-|
D|-2---2-2-2-2-|-2---2-2-2-2-|-2---2-2-2-2-|-2---2-2-2-2-|
A|-3---3-3-3-3-|-3---3-3-3-3-|-3---3-3-3-3-|-3---3-3-3-3-|
C|-------------|-------------|-------------|-------------|

  stars          col...         lide...      i can't

E|-3---3-3-3-3-|-3---3-3-3-3-|-3---3-3-3-3-|-3---3-3-3-3-|
B|-0---0-0-0-0-|-0---0-0-0-0-|-0---0-0-0-0-|-0---0-0-0-0-|
G|-0---0-0-0-0-|-0---0-0-0-0-|-0---0-0-0-0-|-0---0-0-0-0-|
D|-0---0-0-0-0-|-0---0-0-0-0-|-0---0-0-0-0-|-0---0-0-0-0-|
A|-2---2-2-2-2-|-2---2-2-2-2-|-2---2-2-2-2-|-2---2-2-2-2-|
C|-------------|-------------|-------------|-------------|

  eat            and i can't       breathe

E|-1---1-1-1-1-|-1---1-1-1-1-|-3---3-3-3-3-|-3-3-3-3-3-3-|
B|-1---1-1-1-1-|-1---1-1-1-1-|-0---0-0-0-0-|-0-0-0-0-0-0-|
G|-2---2-2-2-2-|-2---2-2-2-2-|-0---0-0-0-0-|-0-0-0-0-0-0-|
D|-3---3-3-3-3-|-3---3-3-3-3-|-0---0-0-0-0-|-0-0-0-0-0-0-|
A|-3---3-3-3-3-|-3---3-3-3-3-|-2---2-2-2-2-|-2-2-2-2-2-2-|
C|-------------|-------------|-------------|-------------|

  i wouldn't want it any       other way

BRIDGE

E|-0---0-0-0-0-|-0---0-0-0-0-|-------------|-1---1-1-1-1-|
B|-1---1-1-1-1-|-1---1-1-1-1-|-------------|-1---1-1-1-1-|
G|-0---0-0-0-0-|-0---0-0-0-0-|-------------|-2---2-2-2-2-|
D|-2---2-2-2-2-|-2---2-2-2-2-|-2---2-2-2-2-|-3---3-3-3-3-|
A|-3---3-3-3-3-|-3---3-3-3-3-|-3---3-3-3-3-|-3---3-3-3-3-|
C|-------------|-------------|-4---4-4-4-4-|-------------|

  my             heart

E|-0---0-0-0-0-|-0---0-0-0-0-|-------------|-1---1-1-1-1-|
B|-1---1-1-1-1-|-1---1-1-1-1-|-------------|-1---1-1-1-1-|
G|-0---0-0-0-0-|-0---0-0-0-0-|-------------|-2---2-2-2-2-|
D|-2---2-2-2-2-|-2---2-2-2-2-|-2---2-2-2-2-|-3---3-3-3-3-|
A|-3---3-3-3-3-|-3---3-3-3-3-|-3---3-3-3-3-|-3---3-3-3-3-|
C|-------------|-------------|-4---4-4-4-4-|-------------|

  burns                       through

E|-0---0-0-0-0-|-0---0-0-0-0-|-------------|-1---1-1-1-1-|
B|-1---1-1-1-1-|-1---1-1-1-1-|-------------|-1---1-1-1-1-|
G|-0---0-0-0-0-|-0---0-0-0-0-|-------------|-2---2-2-2-2-|
D|-2---2-2-2-2-|-2---2-2-2-2-|-2---2-2-2-2-|-3---3-3-3-3-|
A|-3---3-3-3-3-|-3---3-3-3-3-|-3---3-3-3-3-|-3---3-3-3-3-|
C|-------------|-------------|-4---4-4-4-4-|-------------|

  my            chest

E|-0---0-0-0-0-|-0---0-0-0-0-|-------------|-1---1-1-1-1-|
B|-1---1-1-1-1-|-1---1-1-1-1-|-------------|-1---1-1-1-1-|
G|-0---0-0-0-0-|-0---0-0-0-0-|-------------|-2---2-2-2-2-|
D|-2---2-2-2-2-|-2---2-2-2-2-|-2---2-2-2-2-|-3---3-3-3-3-|
A|-3---3-3-3-3-|-3---3-3-3-3-|-3---3-3-3-3-|-3---3-3-3-3-|
C|-------------|-------------|-4---4-4-4-4-|-------------|

  to the         floor        whoa..        whoa...

E|-0---0-0-0-0-|-0---0-0-0-0-|-0---0-0-0-0-|-0---0-0-0-0-|
B|-1---1-1-1-1-|-1---1-1-1-1-|-1---1-1-1-1-|-1---1-1-1-1-|
G|-0---0-0-0-0-|-0---0-0-0-0-|-0---0-0-0-0-|-0---0-0-0-0-|
D|-2---2-2-2-2-|-2---2-2-2-2-|-2---2-2-2-2-|-2---2-2-2-2-|
A|-3---3-3-3-3-|-3---3-3-3-3-|-3---3-3-3-3-|-3---3-3-3-3-|
C|-------------|-------------|-------------|-------------|

  tear me silently            although abruptly

E|-0---0-0-0-0-|-0---0-0-0-0-|-0---0-0-0-0-|-0---0-0-0-0-|
B|-0---0-0-0-0-|-0---0-0-0-0-|-0---0-0-0-0-|-0---0-0-0-0-|
G|-0---0-0-0-0-|-0---0-0-0-0-|-0---0-0-0-0-|-0---0-0-0-0-|
D|-2---2-2-2-2-|-2---2-2-2-2-|-2---2-2-2-2-|-2---2-2-2-2-|
A|-3---3-3-3-3-|-3---3-3-3-3-|-3---3-3-3-3-|-3---3-3-3-3-|
C|-------------|-------------|-------------|-------------|

  words can't hide as i'm     taking you home and I

E|-3---3-3-3-3-|-3---3-3-3-3-|-3---3-3-3-3-|-3---3-3-3-3-|
B|-0---0-0-0-0-|-0---0-0-0-0-|-0---0-0-0-0-|-0---0-0-0-0-|
G|-0---0-0-0-0-|-0---0-0-0-0-|-0---0-0-0-0-|-0---0-0-0-0-|
D|-0---0-0-0-0-|-0---0-0-0-0-|-0---0-0-0-0-|-0---0-0-0-0-|
A|-2---2-2-2-2-|-2---2-2-2-2-|-2---2-2-2-2-|-2---2-2-2-2-|
C|-------------|-------------|-------------|-------------|

  tried to      see           tried to under...

E|-1---1-1-1-1-|-1---1-1-1-1-|-3---3-3-3-3-|-3-3-3-3-3-3-|
B|-1---1-1-1-1-|-1---1-1-1-1-|-0---0-0-0-0-|-0-0-0-0-0-0-|
G|-2---2-2-2-2-|-2---2-2-2-2-|-0---0-0-0-0-|-0-0-0-0-0-0-|
D|-3---3-3-3-3-|-3---3-3-3-3-|-0---0-0-0-0-|-0-0-0-0-0-0-|
A|-3---3-3-3-3-|-3---3-3-3-3-|-2---2-2-2-2-|-2-2-2-2-2-2-|
C|-------------|-------------|-------------|-------------|

  stand your words as i'm     taking you home

CHORUS 2x

E|-0---0-0-0-0-|-0---0-0-0-0-|-0---0-0-0-0-|-0---0-0-0-0-|
B|-1---1-1-1-1-|-1---1-1-1-1-|-1---1-1-1-1-|-1---1-1-1-1-|
G|-0---0-0-0-0-|-0---0-0-0-0-|-0---0-0-0-0-|-0---0-0-0-0-|
D|-2---2-2-2-2-|-2---2-2-2-2-|-2---2-2-2-2-|-2---2-2-2-2-|
A|-3---3-3-3-3-|-3---3-3-3-3-|-3---3-3-3-3-|-3---3-3-3-3-|
C|-------------|-------------|-------------|-------------|

   an...         gels...       cry                   when

E|-0---0-0-0-0-|-0---0-0-0-0-|-0---0-0-0-0-|-0---0-0-0-0-|
B|-0---0-0-0-0-|-0---0-0-0-0-|-0---0-0-0-0-|-0---0-0-0-0-|
G|-0---0-0-0-0-|-0---0-0-0-0-|-0---0-0-0-0-|-0---0-0-0-0-|
D|-2---2-2-2-2-|-2---2-2-2-2-|-2---2-2-2-2-|-2---2-2-2-2-|
A|-3---3-3-3-3-|-3---3-3-3-3-|-3---3-3-3-3-|-3---3-3-3-3-|
C|-------------|-------------|-------------|-------------|

  stars          col...         lide...      i can't

E|-3---3-3-3-3-|-3---3-3-3-3-|-3---3-3-3-3-|-3---3-3-3-3-|
B|-0---0-0-0-0-|-0---0-0-0-0-|-0---0-0-0-0-|-0---0-0-0-0-|
G|-0---0-0-0-0-|-0---0-0-0-0-|-0---0-0-0-0-|-0---0-0-0-0-|
D|-0---0-0-0-0-|-0---0-0-0-0-|-0---0-0-0-0-|-0---0-0-0-0-|
A|-2---2-2-2-2-|-2---2-2-2-2-|-2---2-2-2-2-|-2---2-2-2-2-|
C|-------------|-------------|-------------|-------------|

  eat            and i can't       breathe

E|-1---1-1-1-1-|-1---1-1-1-1-|-3---3-3-3-3-|-3-3-3-3-3-3-|
B|-1---1-1-1-1-|-1---1-1-1-1-|-0---0-0-0-0-|-0-0-0-0-0-0-|
G|-2---2-2-2-2-|-2---2-2-2-2-|-0---0-0-0-0-|-0-0-0-0-0-0-|
D|-3---3-3-3-3-|-3---3-3-3-3-|-0---0-0-0-0-|-0-0-0-0-0-0-|
A|-3---3-3-3-3-|-3---3-3-3-3-|-2---2-2-2-2-|-2-2-2-2-2-2-|
C|-------------|-------------|-------------|-------------|

  i wouldn't want it any       other way

E|-0-----------|
B|-1-----------|
G|-0-----------|
D|-2-----------|
A|-3-----------|
C|-0-----------|


that's it. email any comments or changes to that.1.guy@sbcglobal.net
Suggest correction
comments
print report bad tab
guest
You may want to rate the tab now too:
select rating
Wanna post a correction for this tab? Suggest correction