Oops, an error
Loading. Please wait.

Angels Cry Chords

version 3
version 3

Whole song

14,697 views 3 this week
1 commentread comment
1 2 3 4 5
1 last vote to show rating
add to favorites
launch autoscroll
font size
0
reset
transpose
0
reset
simplify chords
display chords
guitar tuner
Autoscroll
slow
fast
+/-
esc
set tempo
stop
Help us to improve Ultimate-Guitar.com Take our survey!
×
The Red Jumpsuit Apparatus
Angels Cry
Submitted by: paramore_fans@yahoo.om

Key: C

Tuning: Standard EADGBe

Chords used;
C -   x32010
C/E - 032xxx
F -   133211
G -   320003
Am -  x02210


Intro:
Guitar 1:
       C              C/E           F
e|-------------|-------------|-------------|
B|-------------|-------------|-------------|
G|-------------|-------------|-------------|
D|-----2---2---|-----2---2---|-----2---2---| x4
A|-3-3---3---3-|---3---3---3-|---3---3---3-|
E|-------------|-0-----------|-1-----------|
       x2


Guitar 2: will enter at 3rd time to 4th time synch to guitar 1
              C                 C/E           F
e|-------------------------|-------------|-------------|
B|-------------------------|-------------|-------------|
G|-----0-------------------|-----0-------|-----0-------|
D|---------3---2---3---2---|---------2---|---------2---|
A|-3-3---3---3---3---3---3-|---3-------3-|---3-------3-|
E|-------------------------|-0-----0-----|-1-----1-----|

              C                 C/E           F
e|-----------------0---0---|-------------|-------------|
B|-----1---0---3-----------|-----0-------|-----1---0---|
G|-------------------------|---------2---|-------------|
D|-------------------------|-------------|-------------|
A|-3-3---3---3---3---3---3-|---3-------3-|---3-------3-|
E|-------------------------|-0-----0-----|-1-----1-----|


Verse 1:
C                    C/E
  Well its hard to explain
         F          C     C/E F
but Il'l try if you let me
C                     C/E
  Well its hard to sustain
     F          C     C/E F
I'll cry if you let me
     C
This doesn't change the way i feel
 C/E              F           C
about you or your place in my life
        C/E   F
(please don't cry)
C                              C/E
Can't you see I'm dying here a shot of
       F             C                C/E F
broken heart that is chased with fear?


Chorus:
C
Angels cry
      Am
when stars collide
        G
I can't eat
and I can't breathe
F
  I wouldn't want it
    G
any other way


Interlude:
       C              C/E           F
e|-------------|-------------|-------------|
B|-------------|-------------|-------------|
G|-------------|-------------|-------------|
D|-----2---2---|-----2---2---|-----2---2---|
A|-3-3---3---3-|---3---3---3-|---3---3---3-|
E|-------------|-0-----------|-1-----------|
       x2

       C              C/E           F
e|-------------|-------------|-------------|
B|-------------|-------------|-------------|
G|-------------|-----0-------|-----0h2p0---|
D|-----2---2---|---------2---|-------------|
A|-3-3---3---3-|---3-------3-|---3-------3-|
E|-------------|-0-----0-----|-1-----------|
       x2


Verse 2:
  C
Intentions that were
                    C/E
pure have turned obscure
F            C
seconds into hours
                  C/E
minutes into years
F            C
Don't ask me why
        C/E   F
(please don't cry)
        C            C/E F
I can't tell you lies


(Repeat Chorus twice)


Bridge:
C       C/E F C     C/E    F
My heart      burns through
C       C/E F C             C/E F
My chest        to the floor
C
Tearing me silently
although abruptly
Am
words cant hide as I'm
taking you home
      G
and I tried to see
                F
tried to understand your
             G
words as I'm taking you home


(Repeat Chorus Twice)
Suggest correction
Give kudos to tab author, rate the tab!
1 2 3 4 5
comments
print report bad tab
1 comment total.
0 reply
TeddyMonkey 11 Dec 03, 2014 12:57 PM

Great tab 5/5

guest
You may want to rate the tab now too:
select rating
Wanna post a correction for this tab? Suggest correction