Oops, an error
Loading. Please wait.

Atrophy Tab

version 1
version 1

Whole song

Interactive

5,380 views 3 this week
7 commentsread comments
1 2 3 4 5
accurate
x 5
add to favorites
launch autoscroll
font size
0
reset
how to read this tab
guitar tuner
Autoscroll
slow
fast
+/-
esc
set tempo
stop
Help us to improve Ultimate-Guitar.com Take our survey!
×
Difficulty
intermediate
Artist: The Red Jumpsuit Apparatus
Song: Atrophy
Tabbed by:  Will Leong (the guitarist form a state of mind)
Tuning: Drop D (DADGBE)
RJA is a sweet band

Intro:
E--------------------------------------------------------------------------/
B--------------------------------------------------------------------------/
G-----10-10-------10-10----------------------------------------------------/
D-5-5-x--x---5-5--x---x--3\5-3\5-----x4------------------------------------/
A-5-5-8--8---5-5--8---8--3\5-3\5-------------------------------------------/
D-5-5---------5-5--------3\5-3\5------------------------------------------/

Verse:
G1
E-------------------------------------------------------------------------/
B-------------------------------------------------------------------------/
G-------------------------------------------------------------------------/
D-5-5-5-5------1-1-1-1-----1-1-3-3----------------------------------------/
A-5-5-5-5------1-1-1-1-----1-1-3-3----------------------------------------/
D-5-5-5-5------1-1-1-1-----1-1-3-3----------------------------------------/
    o o o x alot o o o x alot
E--------------------------------------------------------------------------/
B--------------------------------------------------------------------------/
G--------------------------------------------------------------------------/
D-5-5-5-5------1-1-1-1-1-1-1-1---------------------------------------------/
A-5-5-5-5------1-1-1-1-1-1-1-1---------------------------------------------/
D-5-5-5-5------1-1-1-1-1-1-1-1---------------------------------------------/
    o o o x alot o o o o o o o x alot

G2
E-------------------------------------------------------------------------/
B----------------------------------------6--------------------------------/
G-7-7-5-5-2-2-2-2-2-2--5---------5----------------------------------------/
D-x-x-x-x-x-x-x-x-x-x-----8-7-8---8---8-----------------------------------/
A-5-5-3-3-0-0-0-0-0-0-----------------------------------------------------/
D-------------------------------------------------------------------------/
                       o  o o o  oo   o  o

E---------------------(-------------------------)-------------------------/
B---------------------(6------------------------)-------------------------/
G-7-7-5-5-2-2-2-2-2-2-(----------7----------x4--)-------------------------/
D-x-x-x-x-x-x-x-x-x-x-(---8-7-8---8-7-8---------)-------------------------/
A-5-5-3-3-0-0-0-0-0-0-(-------------------------)-------------------------/
D---------------------(-------------------------)-------------------------/
                       o  o o o  oo o o
Chorus: 
G1
E-------------------------------------------------------------------------/
B-------------------------------------------------------------------------/
G------3------------------------------------------------------------------/
D-5----3----1--3-----3--3--3----------------------------------------------/
A-5----1----1--3-----3--3--3----------------------------------------------/
D-5---------1--3-----3--3--3----------------------------------------------/
                     o  o  o    figure out strumming

G2- too lazy to figure out exact, but they use these octaves (fool around to figure)
E-------------------------------------------------------------------------/
B-------------------------------------------------------------------------/
G-2---3---5---7---8---10---12---14---15-----------------------------------/
D-x---x---x---x---x----x----x----x----x-----------------------------------/
A-0---1---3---5---6----8---10---12---13-----------------------------------/
D-------------------------------------------------------------------------/

Preverse:
G1
E--------------------------------------------------------------------------/
B-----------6p0------------------------------------------------------------/
G--5p0-----------7p0-------------------------------------------------------/
D-------8p0----------------------------------------------------------------/
A--------------------------------------------------------------------------/
D--------------------------------------------------------------------------/

G1
E--------------------------------------------------------------------------/
B--------------------------------------------------------------------------/
G------3-------------------------------------------------------------------/
D-5----3----1--3-----3--3--3-----------------------------------------------/
A-5----1----1--3-----3--3--3-----------------------------------------------/
D-5---------1--3-----3--3--3-----------------------------------------------/
                     o  o  o    figure out strumming

G2- too lazy to figure out exact, but they use these octaves (fool around to figure)
E--------------------------------------------------------------------------/
B--------------------------------------------------------------------------/
G-2---3---5---7---8---10---12---14----15-----------------------------------/
D-x---x---x---x---x----x----x----x-----x-----------------------------------/
A-0---1---3---5---6----8----10---12---13-----------------------------------/
D--------------------------------------------------------------------------/



Outro:
E--------------------------------------------------------------------------/
B--------------------------------------------------------------------------/
G-----10-10-------10-10----------------------------------------------------/
D-5-5-x--x---5-5--x---x--1-1-----------------------------------------------/
A-5-5-8--8---5-5--8---8--1-1-----------------------------------------------/
D-5-5--------5-5---------1-1-----------------------------------------------/
                         o o
comments
print report bad tab
7 comments total. Showing first comments.
0 reply
AC/DC Dude8 181 wrote on August 19 2006, 07:08 pm

you skipped out on almost half the song.

0 reply
astateofmind834 12 wrote on January 7 2007, 02:30 am

i tabbed a while ago and forget thje emal i used so heres a correction.

the riff thing at the verses thefirst time actually goes like this.
e---------------------------------------------------------
B--------------6--------------------------------------------
g--7-8-7-5--------------------------------------------------
D----------8-7----8-----------------------------------------
a---------------------------------------------------------
E---------------------------------------------------------
o o o o o o o o

0 reply
that_one_guy555 10 wrote on March 12 2007, 01:58 pm

hmm ok well like most red jumpsuit apparatus's songs this one should be in open C tuning
D
A
F
C
G
C

then some of the parts you missed in the song will be alot easyer to do

but u also have to raise some of the chords like insted of the intro starting on the 5th string , start on the 7th and play from there.

hope that wasent to confusing but i know its right

i went to there concert in portland oregon last week and watched how they plaed it

so yea try it out ( ;

-->matt

I want to post or [tab]
guest
You may want to rate the tab now too:
select rating
Please do not post tabs as comments. Select "correction" instead!