Oops, an error
Loading. Please wait.

Atrophy Tab

version 2
version 2

Whole song

Interactive

1,736 views 1 this week
2 commentsread comments
1 2 3 4 5
x 3
add to favorites
launch autoscroll
font size
0
reset
how to read this tab
guitar tuner
Autoscroll
slow
fast
+/-
esc
set tempo
stop
Help us to improve Ultimate-Guitar.com Take our survey!
×
Author
Artist: The Red Jumpsuit Apparatus
Song: Atrophy
Album: Don't You Fake It
Tuning: Dropped C

*Updated: June 3, 2007

Updates: The interlude a.

I'm not 100% sure on the interlude a. part. but everything else should be good. easy 
pretty fun. GO NUTS!

Intro.
|-------------------|------------------|-------------------|----------------|
|---88----88--------|---88----8\\------|---88----88--------|---88----88-----|
|---xx----xx--------|---xx----x\\------|---xx----xx--------|---xx----xx-----|
|77-55-77-55-3h5-3h5|77-55-77-5\\-3-3-3|77-55-77-55-3h5-3h5|77-55-77-55-55-7|
|77----77----3h5-3h5|77----77-----3-3-3|77----77----3h5-3h5|77----77----55-7|
|77----77----3h5-3h5|77----77-----3-3-3|77----77----3h5-3h5|77----77----55-7|
                                  . . .

Verse
|-----------------------------------------------|
|----------------------[3]----------------------|
|--------9-9-7-7-4-44\-[3]----------------------|
|--------x-x-x-x-x-xx\--------------------------| x2
|7-(x15)-7-7-5-5-2-22\----3-(x15)-0-(x8)-5-(x8)-|
|7------------------------3-------0------5------|

Chorus
|----------------------------------|---------------------------------------------|
|----------------------------------|---------------------------------------------|
|----------------------------------|--------------------------------0-5-4-0-7-5-0|
|7-------5-------3-------5------xxx|7-------10-------3-------5-------------------|
|7-(x12)-5-(x12)-3-(x12)-5-(x9)-xxx|7-(x12)-10-(x12)-3-(x12)-5-(x9)--------------|
|7-------5-------3-------5------xxx|7-------10-------3-------5-------------------|

Verse
|-----------------------------------------------|
|----------------------[3]----------------------|
|--------9-9-7-7-4-44\-[3]----------------------|
|--------x-x-x-x-x-xx\--------------------------| x2
|7-(x15)-7-7-5-5-2-22\----3-(x15)-0-(x8)-5-(x8)-|
|7------------------------3-------0------5------|

Chorus
|----------------------------------|--------------------------------|
|----------------------------------|--------------------------------|
|----------------------------------|--------------------------------|
|7-------5-------3-------5------xxx|7-------10-------3-------5------|
|7-(x12)-5-(x12)-3-(x12)-5-(x9)-xxx|7-(x12)-10-(x12)-3-(x12)-5-(x16)|
|7-------5-------3-------5------xxx|7-------10-------3-------5------|

Interlude a. *Let Ring throughout*
|--------------------3------|
|---------------------------|
|--5---4--4---4--4-----4---4|
|5---5------5------5-----5--| x7
|---------------------------|
|---------------------------|

Interlude b.
|---------------------------|----------------------------|
|---------------------------|----------------------------|
|---------------------------|----------------------------|
|7------5------3------5-----|7------10------3------5-----|
|7-(x8)-5-(x8)-3-(x8)-5-(x8)|7-(x8)-10-(x8)-3-(x8)-5-(x8)|
|7------5------3------5-----|7------10------3------5-----|

Chorus
|----------------------------------|------------------------------------|
|----------------------------------|------------------------------------|
|9---------------------------------|------------------------------------|
|x-(x16)-5-------3-------5------xxx|7-------10-------3-------5------\\\\|
|7-------5-(x12)-3-(x12)-5-(x9)-xxx|7-(x12)-10-(x12)-3-(x12)-5-(x16)\\\\|
|--------5-------3-------5------xxx|7-------10-------3-------5------\\\\|

|---------------------------|----------------------------|
|---------------------------|----------------------------|
|---------------------------|----------------------------|
|7------5------3------5-----|7------10------3------5-----|
|7-(x8)-5-(x8)-3-(x8)-5-(x8)|7-(x8)-10-(x8)-3-(x8)-5-(x8)|
|7------5------3------5-----|7------10------3------5-----|

Outro.
|-------------------|------------------|
|---88----88--------|---88----8\\------|
|---xx----xx--------|---xx----x\\------|
|77-55-77-55-3h5-3h5|77-55-77-5\\-3-3-3|
|77----77----3h5-3h5|77----77-----3-3-3|
|77----77----3h5-3h5|77----77-----3-3-3|
                                  . . .
Suggest correction
Give kudos to tab author, rate the tab!
1 2 3 4 5
comments
print report bad tab
2 comments total.
0 reply
geoguitar 83 May 29, 2007 04:35 PM

looks good. havent tried the bridge part. but i se you are missing som licks and some lead parts

0 reply
spencer Cr 507 Jul 31, 2007 01:07 PM

u need teh lead sections in the chorus and interlude

guest
You may want to rate the tab now too:
select rating
Wanna post a correction for this tab? Suggest correction