Oops, an error
Loading. Please wait.

Atrophy Tab

version 3
version 3

Whole song

Interactive

12,803 views 3 this week
4 commentsread comments
1 2 3 4 5
excellent!
x 10
add to favorites
launch autoscroll
font size
0
reset
how to read this tab
guitar tuner
Tab Pro tools
  • play this tab
  • loop segment
  • change instrument
  • show fretboard
  • metronome
×
Best way to learn
"Atrophy"
Autoscroll
slow
fast
+/-
esc
set tempo
stop
Contributor
Difficulty
Tuning
intermediate
D A D G B E
Artist: The Red Jumpsuit Apparatus
Song: Atrophy
Tabbed by:  ...Alex...
Tuning: Drop D (DADGBE)
(tbh it probably should be in drop C, but if you're like me u
cba fiddling with teh tuning so here it is...:P)


**********************************************************************************
*Intro*: (0:00)
E|:-----------------------------------------------------------------|
B|:-----------------------------------------------------------------|
G|:----10-10------10-10-----------------10-10------10-10------------|
D|:-55--x--x---55--x---x---1h3-1h3---55--x--X---55--x--x----1-1-1---|
A|:-55--8--8---55--8---8---1h3-1h3---55--8--8---55--8--8----1-1-1---|
D|:-55---------55----------1h3-1h3---55---------55----------1-1-1---|
                                                          Pm. . .


E|:-----------------------------------------------------------------|
B|:-----------------------------------------------------------------|
G|:----10-10------10-10---------------10-10------10-10--------------|
D|:-55--x--x---55--x---x--1h3-1h3--55--x--X---55--x--x----1-3-------|
A|:-55--8--8---55--8---8--1h3-1h3--55--8--8---55--8--8----1-3-------|
D|:-55---------55---------1h3-1h3--55---------55----------1-3-------|


****************************************************************************

VERSE 1: (0:12) I warned you....


Rhythm Guitar (G1)
                                          |*---->
E|:----------------------------------------------------------------|
B|:----------------------------------------------------------------|
G|:----------------------------------------------------------------|
D|:--5-5-5-5-5-5-5-5----5-1-1-1-1-1-1-1----1-1-1-1-3-3-3-3---------| X2
A|:--5-5-5-5-5-5-5-5----5-1-1-1-1-1-1-1----1-1-1-1-3-3-3-3---------|
D|:--5-5-5-5-5-5-5-5----5-1-1-1-1-1-1-1----1-1-1-1-3-3-3-3---------|
     . . . . . . . .    . . . . . . . .    . . . . . . . .


*Second time round cut to this:
          (~ =let ring [in this case then stop]-> listen U'll hear it)
E|:-------------------------|
B|:-------------------------|
G|:-------------------------|
D|:-1-1-1-1~1~--3-3-3-3~3~--|
A|:-1-1-1-1~1~--3-3-3-3~3~--|
D|:-1-1-1-1~1~--3-3-3-3~3~--|
    . . .       . . .


               =========================================

Lead (G2)

     (*) play if  want...
E|:-------------------------------------------------------1--------|
B|:-----------------------------------------1-3-4-3-1--------------|
G|:-----------777-555-22-22223~-----------------------3-2---3------|
D|:--(5-5-5)--xxx-xxx-xx-xxxxx----(1-1-1)--------------------------|
A|:--(5-5-5)--555-333-00-00001~---(1-1-1)--------------------------|
D|:--(5-5-5)----------------------(1-1-1)--------------------------|
      . . .                        . . .    . . . . . . . . .

G2 (0:20)

E|:---------------------|
B|:---------------------|
G|:--5--2-----7--2--3---|
D|:--x--x-----x--x--x---|
A|:--3--0-----5--0--1---|
D|:---------------------|

  (not sure) what i've written in as extra notes may be played on G1
E|:--------------------------------------------------|
B|:-----------666-666-11-11113-----------------------|
G|:-----------777-555-22-22223~----------------------|
D|:--(5-5-5)--xxx-xxx-xx-xxxxx----(1-1-1)------------|
A|:--(5-5-5)--555-333-00-00001~---(1-1-1)------------|
D|:--(5-5-5)----------------------(1-1-1)------------|
      . . .                        . . .

(0:29)
E|:---1-------1---------|
B|:-------3-------3-----|
G|:----323-323-323-323--|X2
D|:---------------------|   (becomes less pm each time u play the riff
A|:---------------------|    untill pretty much none last time round)
D|:---------------------|
      ................


****************************************************************************

CHORUS: (0:33) Return to days....

G1

E--------------------------------------------------------------------|
B--------------------------------------------------------------------|
G---------------------------------------------------------------XXXX-|
D-55555555555555-33333333333333-11111111111111-333333333333333--XXXX-|
A-55555555555555-33333333333333-11111111111111-333333333333333--XXXX-|
D-55555555555555-33333333333333-11111111111111-333333333333333--XXXX-|


E----------------------------------------------------|
B----------------------------------------------------|
G----------------33333333333333----------------------|
D-55555555555555-33333333333333-11111111111111-33333-|
A-55555555555555-11111111111111-11111111111111-33333-|
D-55555555555555----------------11111111111111-33333-|

                 =========================================

G2


E|:-------------------------1111111111111---------------------|
B|:-66666666666-66666666666-4444444444444-6666666666666-------|
G|:-77777777777-55555555555-3333333333333-5555555555555-XXXXX-|
D|:-55555555555-33333333333-1111111111111-3333333333333-XXXXX-|
A|:-55555555555-33333333333-1111111111111-3333333333333-XXXXX-|
D|:-----------------------------------------------------XXXXX_|


E|:----------------------------------------------------------------------|
B|:-66666666666-111111-11-11-11-10-10-10----------11-11-11--13-13-13-13~-|
G|:-77777777777-101010--X--X--X--X--X--X-10-10-10--X--X--X---X--X--X--X--|
D|:-55555555555--8-8-8--8--8--8--7--7--7--X--X--X--8--8--8--10-10-10-10~-|
A|:-55555555555--8-8-8--------------------8--8--8------------------------|
D|:----------------------------------------------------------------------|

(f you find it easier you can play all octaves on 2nd and 4th string, but
i chose to switch as ur fingers are already there from the chords..up 2 u :D)


****************************************************************************

Preverse:

G1

(O:54)
E|:--------------|
B|:--------------|
G|:--3P2-5P3-----|
D|:-----3---3----|
A|:--------------|
D|:--------------|


****************************************************************************

VERSE 2 AND CHORUS 2: REPEAT AS ABOVE


****************************************************************************

BREAK DOWN (1:40)

G1/2 (CLEAN with reverb/delay) {and really fast so can just tap out most of the notes 
hammer ons and pull offs and pic occationally)

E|:-----------------------1~---------|
B|:----------------------------------|
G|:----3---2~-3-2-3---3-2---3-2-3----| X4
D|:--5---5----------5----------------|
A|:----------------------------------|
D|:----------------------------------|


****************************************************************************

HEAVY BREAK DOWN (2:02) Break the Walls....

G1 distortion again
                                    |--> dont let ring 2nd time
E|:----------------------------------------------------------------|
B|:----------------------------------------------------------------|
G|:--5~~~~~~~~-3~~~~~~~~-1~~~~~~~~-3~~~~~~~~-----------------------|
D|:--5~~~~~~~~-3~~~~~~~~-1~~~~~~~~-3~~~~~~~~-----------------------| X2
A|:--5~~~~~~~~-3~~~~~~~~-1~~~~~~~~-3~~~~~~~~-----------------------|
D|:----------------------------------------------------------------|

                 =========================================

G2
(fast struming) listen for patterns                   |-> 2nd time
E|:----------------------------------------------------------------|
B|:----------------------------------------------------------------|
G|:--12-12-12--10--14-14-14--10--15-15-15-17-17-17----(19~~~)------|
D|:---x--x- x---x---x--x--x---x---x--x--x--x--x--x----(-x~~~)------| X2
A|:--10-10-10---8--12-12-12---8--13-13-13-15-15-15----(17~~~)------|
D|:----------------------------------------------------------------|

TO FINISH: REPEAT OF CHORUS
           REPEAT OF HEAVY BREAK DOWN
           BASICALLY THE INTRO AGAIN, LISTEN


:0 There it is, it's taken me ages, so please rate!!! (i shd reli have
been revising lol) but i like the song so it was worth it :D.

Any suggestions send to alex-zander-@hotmail.co.uk
comments
print report bad tab
4 comments total. Showing first comments.
0 reply
spencer Cr wrote on August 1 2007, 05:37 pm

thank's dude finally a good worth while tab, i'm gonna make a guitar pro tab of this so it's not too confusing, but thanks, i've been lokking for a good tab of this.

0 reply
amp435 wrote on August 16 2008, 11:50 am

dude...ur tab is sick

0 reply
Ngui94 wrote on April 8 2009, 05:53 am

effin' madd

I want to post or [tab]
guest
You may want to rate the tab now too:
select rating
Please do not post tabs as comments. Select "correction" instead!