Oops, an error
Loading. Please wait.

Cat And Mouse bass

version 1
version 1

Whole song

Interactive

5,466 views 1 this week
2 commentsread comments
1 2 3 4 5
1 last vote to show rating
add to favorites
×
Save as Personal and add changes to this tab that will be seen only by you. Learn more ›
×
You can save this tab as Personal to edit and correct it or add notes. All changes will be seen only by you. Learn more »
launch autoscroll
font size
0
reset
guitar tuner
edit
Autoscroll
slow
fast
+/-
esc
set tempo
stop
Song:Cat And Mouse
Album:Don't You Fake It
Artist:The Red Jumpsuit Apparatus
Date Tabbed:August,2007
Guitar Tabber:Ryan Manongdo/17/m/Montalban Rizal
              no_falter0x@yahoo.com(Friendster&YM)
              
For your questions or suggestions,just post in friendster comment,PM or mail me.

Gtr.Legends:
~ - let it ring

Gtr.Tuning:Standard(Normal)

Intro:Bass Enters
G|----------5~------------------|
D|-7~---5~---------7~--5~-------|
A|-------------------------3~---|
E|------------------------------|

Verse:Softly we...
G|---------------|
D|---------------| 4x
A|-0~-------3~---|
E|------3~-------|

Chorus:Am I supposed to be....
G|-----------------------------------------------------------|
D|-----------------------------------------------------------|
A|-0000-33333----------00000-33333----------00000-33333------|
E|------------111111---------------11111----------------1~---|

Verse 2:You must live....
Play Verse 1

Repeat Chorus:

Bridge:
G|------------------------------------------------------------------|
D|------------------------------------------------------------------|
A|-----------------------------00000-33333---------00000-33333------|
E|-33333-111111--33333-11111---------------111111--------------1~---|

Repeat Chorus:

End...

            
            
Suggest correction
Creating personal tab
Creating personal tab
You can edit any tab online and save it as your Personal.

You can edit, replace or remove any tab part or add personal notes – all changes will be seen only by you.

Personal tabs can be accessed anytime from any device, even offline.
Learn more »
Give kudos to tab author, rate the tab!
1 2 3 4 5
comments
print report bad tab
2 comments total.
0 reply
BreAkdOwn396 83 Aug 22, 2007 01:08 PM

think its suppose to be in drop d or c. idk rate later

0 reply
No_Falter08 2,414 Aug 22, 2007 01:30 PM

no man...standard tuning is Enough:-)

guest
You may want to rate the tab now too:
select rating
Wanna post a correction for this tab? Suggest correction