Oops, an error
Loading. Please wait.

Cat And Mouse Tab

version 1
version 1

Intro

Whole song

Interactive

34,002 views 3 this week
13 commentsread comments
1 2 3 4 5
x 17
add to favorites
launch autoscroll
font size
0
reset
how to read this tab
guitar tuner
Autoscroll
slow
fast
+/-
esc
set tempo
stop
Help us to improve Ultimate-Guitar.com Take our survey!
×
Author
i thought that this song would be really hard to play. but when i was listing to it one 
i picked up my guitar & just started playing along. so yeah this is just the piano part 
there's 2 playing so i'll write them both in.

piano 1
e|-----------------------------------------------------|
b|-----5---5--------5---5--------5---5--------5---5----|
g|---5---5---5----5---5---5----5---5---5----5---5---5--| x3
d|-----------------------------------------------------|
a|-0-------------------------3------------3------------|
E|--------------3--------------------------------------|

e|--------------------------------------------------|
b|-----5---5--------5---5--------5---5--------------|
g|---5---5---5----5---5---5----5---5---5------------|
d|--------------------------------------------------|
a|-0-------------------------3------------3---------|
E|--------------3-----------------------------------|

piano 2
e|----------------------------------------8-7-5----|
b|-----5---5--------5---5--------5---5-------------|
g|---5---5---5----5---5---5----5---5---5-----------|
d|-------------------------------------------------|
a|-0-------------------------3---------------------|
E|--------------3----------------------------------|

e|----------------------------------------5-7-8----|
b|-----5---5--------5---5--------5---5-------------|
g|---5---5---5----5---5---5----5---5---5-----------|
d|-------------------------------------------------|
a|-0-------------------------3---------------------|
E|--------------3----------------------------------|

e|----------------------------------------8-7-5----|
b|-----5---5--------5---5--------5---5-------------|
g|---5---5---5----5---5---5----5---5---5-----------|
d|-------------------------------------------------|
a|-0-------------------------3---------------------|
E|--------------3----------------------------------|

e|-------------------------------------------------|
b|-----5---5--------5---5--------5---5-------------|
g|---5---5---5----5---5---5----5---5---5-----------|
d|-------------------------------------------------|
a|-0-------------------------3------------3--------|
E|--------------3----------------------------------|

that's pretty much it.
have fun ;D
if your really smart like me
you can transfer it to piano.
leave a comment if you have any trobles or anything.
Suggest correction
comments
print report bad tab
13 comments total. Showing first comments.
0 reply
trevor777 10 Aug 10, 2007 12:57 AM

THANK YOU!!! ive been tryin to learn this on piano for awhile now. so I was feeling smart today and decided to transfer this to piano lol... yeah i shoulda thought of this earlier :(

great job

0 reply
duuude182 100 Aug 13, 2007 06:40 AM

hahaha thanks man no worries ;)

0 reply
Weaver64 10 Sep 23, 2007 09:44 PM

hm.... a lot easier when you play 0's instead of the 5's and move it up one string. Know what I'm talkin about?

guest
You may want to rate the tab now too:
select rating
Wanna post a correction for this tab? Suggest correction