Oops, an error
Loading. Please wait.

Cat And Mouse Tab

version 1
version 1

Whole song

Interactive

60,537 views 30 this week
12 commentsread comments
1 2 3 4 5
accurate
x 19
add to favorites
launch autoscroll
font size
0
reset
how to read this tab
guitar tuner
Autoscroll
slow
fast
+/-
esc
set tempo
stop
Help us to improve Ultimate-Guitar.com Take our survey!
×
Song: Cat and Mouse
Artist: The Red Jumpsuit Apparatus
Album: Don't You Fake It
Tabbed by:  Sheldon M

The Chords used are Am, C, G, and F.

Piano Intro:

I don't know how to write a Piano Tab, I don't even play piano, but...

Note: As you play these notes keep in mind the pitch gets higher.  So you are 
working your way to the right across the keyboard/piano.

The notes go:

| A C E C E C | G C E C E C | C E G E G E | C E B E A |

| A C E C E C | G C E C E C | C E G E G E | C E D E E |


The intro uses the chords..

          Am         G          C          
e|--------0----------3----------0---------------|
B|--------1----------3----------1---------------|
G|--------2----------0----------0---------------|
D|--------2----------0----------2---------------|
A|--------0----------2----------3---------------|
E|-------------------3--------------------------|

Piano Intro then the Guitar comes in..

Intro: Picking
e|----------------------------------------------|
B|----------------------------------------------|
G|----------------------------------------------|
D|----3-2---3-2---3-2---3-2---------------------|  x2
A|--0-----0-----------------3-------------------|
E|--------------3-----3-------------------------|

Then the signing starts...

Verse 1:
Am         G      C
Softly we tremble tonight,
Am              G                 C
picture perfect fading smiles are all that's left in sight,
Am         G           C
I said I'd never leave you'll never change
        Am             G               C
I'm not satisfied with where I'm at in life.

Chorus:
Am    C                F (Continues thru-the next line)
   Am I supposed to be happy?

With all I ever wanted, it comes with a price.
Am    C                F
   Am I supposed to be happy?

With all I ever wanted, it comes with a price.
Am           C                       F
   You said, you said that you would die for me.

Verse 2: Strumming and Picking Pattern:

e|----------------------------------------------|
B|----------------------------------------------|
G|----------------------------------------------|
D|----3-2---3-2---3-2---3-2---------------------|  x2
A|--0-----0-----------------3-------------------|
E|--------------3-----3-------------------------|

Am      G             C
We made plans to grow old,
Am                   G                  C
believe me there was truth in all those stories that I told.
Am        G           C                             
Lost in a simple game cat and mouse are we the same
Am        G                   C
people as before this came to light?


Chorus:
Am    C                F (Continues thru-the next line)
   Am I supposed to be happy?

With all I ever wanted, it comes with a price.
Am    C                F
   Am I supposed to be happy?

With all I ever wanted, it comes with a price.
Am           C                       F
   You said, you said that you would die for me.

                  G     F
You must live for me too'...
    G     F             Am  C   F  Am  C
For me too...yeah, yeah
                        F
You said that you would die for me

Chorus:
Am    C                F (Continues thru-the next line)
   Am I supposed to be happy?

With all I ever wanted, it comes with a price.
Am    C                F
   Am I supposed to be happy?

With all I ever wanted, it comes with a price.
Am           C                       F
   You said, you said that you would die for me.


Then there's a piano Outro.
Suggest correction
comments
print report bad tab
12 comments total. Showing first comments.
0 reply
BreAkdOwn396 83 wrote on May 21 2007, 08:09 pm

is the g cord right? and what is the f cord thankx

0 reply
Xb4mvluvrX 167 wrote on August 12 2007, 03:56 pm

wuts the f chord...u didnt put tht down?

0 reply
blindauthority5 112 wrote on August 12 2007, 05:09 pm

I assumed you would know what it is or you'd just look it up.. but.. here it is
F
e|--------1--------|
B|--------1--------|
G|--------2--------|
D|--------3--------|
A|--------3--------|
E|--------1--------|

guest
You may want to rate the tab now too:
select rating
Wanna post a correction for this tab? Suggest correction