Oops, an error
Loading. Please wait.

Cat And Mouse Tab

version 2
version 2

Intro

Whole song

Interactive

7,603 views 3 this week
3 commentsread comments
1 2 3 4 5
accurate
x 2
add to favorites
launch autoscroll
font size
0
reset
how to read this tab
guitar tuner
Tab Pro tools
  • play this tab
  • loop segment
  • change instrument
  • show fretboard
  • metronome
×
Best way to learn
"Cat And Mouse"
Autoscroll
slow
fast
+/-
esc
set tempo
stop
Contributor
Song: Cat and Mouse
Artist: The Red Jumpsuit Apparatus
Album: Don't You Fake It
Tabbed by:  excellent123


So this is my first tab and i'm not sure if the intro is 100% right but i think so =)


Intro:

e|------0---0-------0---0-----0-3-0-3-0-8-0-7-0-5------|
B|----1---1---1---1---1---1-1--------------------------|
G|--2-----------0--------------------------------------|
D|-----------------------------------------------------|
A|-----------------------------------------------------|
E|-----------------------------------------------------|

e|------0---0-------0---0-----0-3-0-3-0-8-0-10-0-12----|
B|----1---1---1---1---1---1-1--------------------------|
G|--2-----------0--------------------------------------|
D|-----------------------------------------------------|
A|-----------------------------------------------------|
E|-----------------------------------------------------|

e|----1-0---1-0---1-0---1-0-----8-0-7-0-5--------------|
B|--------1-----------1-----1--------------------------|
G|--2-----------0--------------------------------------|
D|-----------------------------------------------------|
A|-----------------------------------------------------|
E|-----------------------------------------------------|

e|----1-0---1-0---1-0---1-0----------------------------|
B|--------1-----------1-----1--------------------------|
G|--2-----------0--------------------------------------|
D|-----------------------------------------------------|
A|-----------------------------------------------------|
E|-----------------------------------------------------|

Vers1:

          Am         G          C          
e|--------0----------3----------0---------------|
B|--------1----------3----------1---------------|
G|--------2----------0----------0---------------|
D|--------2----------0----------2---------------|
A|--------0----------2----------3---------------|
E|-------------------3--------------------------|


Chorus:

          Am         C          F          
e|--------0----------0----------1---------------|
B|--------1----------1----------1---------------|
G|--------2----------0----------2---------------|
D|--------2----------2----------3---------------|
A|--------0----------3----------3---------------|
E|------------------------------1---------------|


Vers2:

          Am         G          C          
e|--------0----------3----------0---------------|
B|--------1----------3----------1---------------|
G|--------2----------0----------0---------------|
D|--------2----------0----------2---------------|
A|--------0----------2----------3---------------|
E|-------------------3--------------------------|


Chorus:

          Am         C          F          
e|--------0----------0----------1---------------|
B|--------1----------1----------1---------------|
G|--------2----------0----------2---------------|
D|--------2----------2----------3---------------|
A|--------0----------3----------3---------------|
E|------------------------------1---------------|

Bridge:

     G      F      G      F      Am     C      F      Am     C      F
e|---3------1------3------1------0------0------1------0------0------1------|
B|---3------1------3------1------1------1------1------1------1------1------|
G|---0------2------0------2------2------0------2------2------0------2------|
D|---0------3------0------3------2------2------3------2------2------3------|
A|---2------3------2------3------0------3------3------0------3------3------|
E|---3------1------3------1--------------------1--------------------1------|


Chorus:

          Am         C          F          
e|--------0----------0----------1---------------|
B|--------1----------1----------1---------------|
G|--------2----------0----------2---------------|
D|--------2----------2----------3---------------|
A|--------0----------3----------3---------------|
E|------------------------------1---------------|


Finish!!!
comments
We did not receive enough feedback on this tab! Please rate:
print report bad tab
1 2 3 4 5
3 comments total.
0 reply
PagudpudRocker wrote on March 8 2008, 11:49 pm

Nice Dude,
But it would be better if the tab will be like this
e|------0---0-------0---0-----0-3-0-3-0-3-0-8-0-7-0-5--|
B|----1---1---1---1---1---1----------------------------|
G|--2-----------0--------------------------------------|
D|-----------------------------------------------------|
A|-----------------------------------------------------|
E|-----------------------------------------------------|

But still,
you did a great job . .

0 reply
PagudpudRocker wrote on March 18 2008, 08:45 am

Or It can be
e|------0---0-------0---0--------0---0------0-8-0-7-0-5|
B|----1---1---1---1---1---1----1---1-------------------|
G|--2-----------0------------2-------------------------|
D|-----------------------------------------------------|
A|-----------------------------------------------------|
E|-----------------------------------------------------|

0 reply
erijasoro wrote on January 31 2009, 05:10 pm

THE RED JUMPSUIT APPARATUS - CAT AND MOUSE TAB

credit goes to: duuude182, and blindauthority5

If you only have two guitarist, guitar 3 and 2 can be done on one guitar

INTRO:
Guitar 1 (in the song its actually a piano)
e|-----------------------------------------------------|
b|-----5---5--------5---5--------5---5--------5---5----|
g|---5---5---5----5---5---5----5---5---5----5---5---5--| x3
d|-----------------------------------------------------|
a|-0-------------------------3------------3------------|
E|--------------3--------------------------------------|

e|--------------------------------------------------|
b|-----5---5--------5---5--------5---5--------------|
g|---5---5---5----5---5---5----5---5---5------------|
d|--------------------------------------------------|
a|-0-------------------------3------------3---------|
E|--------------3-----------------------------------|

Guitar 2 (in the song its actually a piano)
e|----------------------------------------8-7-5----|

e|----------------------------------------8-10-12--|

e|----------------------------------------8-7-5----|

Guitar 3
e|----------------------------------------------|
B|----------------------------------------------|
G|----------------------------------------------|
D|----3-2---3-2---3-2---3-2---------------------| x2
A|--0-----0-----------------3-------------------|
E|--------------3-----3-------------------------|

VERSE:
Guitar 1
Same as Intro

Guitar 2
same as Intro

Guitar 3
e|----------------------------------------------|
B|----------------------------------------------|
G|----------------------------------------------|
D|----3-2---3-2---3-2---3-2---------------------| x4
A|--0-----0-----------------3-------------------|
E|--------------3-----3-------------------------|

CHORUS:
I can only hear the little 8-10-12 thing once. i can't Hear what guitar one does!

Guitar 1
there is no guitar 1, you could do what Guitar 3 or Guitar 1 does in the Verse

Guitar 2
e|----------------------------------------8-10-12--|

Guitar 3
Am C F
Am I supposed to be happy?
F
With all I ever wanted, it comes with a price.

Am C F
Am I supposed to be happy?
F
With all I ever wanted, it comes with a price.
Am C F
You said, you said that you would die for me.

I want to post or [tab]
guest
You may want to rate the tab now too:
select rating
Please do not post tabs as comments. Select "correction" instead!