Oops, an error
Loading. Please wait.

Cat And Mouse Tab

version 3
version 3

Whole song

Interactive

3,777 views 3 this week
no commentswrite comment
1 2 3 4 5
please rate
add to favorites
launch autoscroll
font size
0
reset
how to read this tab
guitar tuner
Tab Pro tools
  • play this tab
  • loop segment
  • change instrument
  • show fretboard
  • metronome
×
Best way to learn
"Cat And Mouse"
Autoscroll
slow
fast
+/-
esc
set tempo
stop
Contributor
Song: Cat and Mouse
Tabbed by: leipogue
Email: leipogue@yahoo.com

Intro:(piano)             
e|------------------------------3---3-------3---3------|
B|------5---5-------5---5-----5---5---5---5---5---5----|
G|----5---5---5---5---5---5-5-----------5--------------|4x
D|--------------3--------------------------------------|
A|--0--------------------------------------------------|
E|-----------------------------------------------------|


Piano Intro then the Guitar comes in..

Intro: (Guitar)
e|----------------------------------------------|
B|----------------------------------------------|
G|----------------------------------------------|
D|----3-2---3-2---3-2---3-2---------------------|  x2
A|--0-----0-----------------3-------------------|
E|--------------3-----3-------------------------|

Verse 1:
Am         G      C
Softly we tremble tonight,
Am              G                 C
picture perfect fading smiles are all that's left in site,
Am         G           C
I said I'd never leave you'll never change
        Am             G               C
I'm not satisfied with where I'm at in life.

Chorus:
Am    C                F 
   Am I supposed to be happy?

With all I ever wanted, it comes with a price.
Am    C                F
   Am I supposed to be happy?

With all I ever wanted, it comes with a price.
Am           C                       F
   You said, you said that you would die for me.

Verse 2: Strumming and Picking Pattern:

e|--------------------------------------------------|
B|--------------------------------------------------|
G|--------------------------------------------------|
D|----3-2---3-2---3-2---3-2---3-2---3-2---3-2---3-2-|3x
A|--0-----0-----------------3-----3-----3-----3-----|
E|--------------3-----3-----------------------------|

e|--------------------------------|
B|--------------------------------|
G|--------------------------------|
D|----3-2---3-2---3-2---3-2-------|
A|--0-----0-----------------3-----|
E|--------------3-----3-----------|

Am      G             C
We made plans to grow old,
Am                   G                  C
believe me there was truth in all those stories that I told.
Am        G           C                             
Lost in a simple game cat and mouse are we the same
Am        G                   C
people as before this came to light?


Chorus:
Am    C                F
   Am I supposed to be happy?

With all I ever wanted, it comes with a price.
Am    C                F
   Am I supposed to be happy?

With all I ever wanted, it comes with a price.
Am           C                       F
   You said, you said that you would die for me.

                  G     F
You must live for me too'...
    G     F            
For me too...yeah, yeah

solo:
 Am  C   F  Am  C
e|-----------------------------------15--------15---------------------|
B|--17--13-15-17-13-15-17-13-15-17-13--13-15-13--13-15-13-17-13-15----|
G|--------------------------------------------------------------------|
D|--------------------------------------------------------------------|
A|--------------------------------------------------------------------|
E|--------------------------------------------------------------------|

e|----13---------------------------13--------------|
B|--13--13-15-13-17-13-15-13-17-15-----------------|
G|-------------------------------------------------|
D|-------------------------------------------------|
A|-------------------------------------------------|
E|-------------------------------------------------|

e|-----------------------------------------------------------------13------|
B|--17-13-15-17-13-15-17-13-15-17-13-15-17-13-17-12-13-15-17--15-17--17-13-|
G|-------------------------------------------------------------------------|
D|-------------------------------------------------------------------------|
A|-------------------------------------------------------------------------|
E|-------------------------------------------------------------------------|

                        F
You said that you would die for me

Chorus:
Am    C                F
   Am I supposed to be happy?

With all I ever wanted, it comes with a price.
Am    C                F
   Am I supposed to be happy?

With all I ever wanted, it comes with a price.
Am           C                       F
   You said, you said that you would die for me.

Outro
comments
We did not receive enough feedback on this tab! Please rate:
print report bad tab
1 2 3 4 5
I want to post or [tab]
guest
You may want to rate the tab now too:
select rating
Please do not post tabs as comments. Select "correction" instead!