Oops, an error
Loading. Please wait.

Cat And Mouse Tab

version 4
version 4

Whole song

Interactive

1,898 views 9 this week
no commentswrite comment
1 2 3 4 5
3 more votes to show rating
add to favorites
launch autoscroll
font size
0
reset
how to read this tab
guitar tuner
Autoscroll
slow
fast
+/-
esc
set tempo
stop
Help us to improve Ultimate-Guitar.com Take our survey!
×
Author
Difficulty
Tuning
intermediate
D A D G B E
This is the piano part, tabbed to guitar. Intro has tough fingerings.  If you 
can't do it, it's your problem cause this is right.

e|-------------------------------8--7--5------------------|
b|-------5-5-----5-5-----5-5------------------------------|
g|------5-5-5---5-5-5---5-5-5------5-5--5-----------------|
d|-------------------------------5------------------------|
a|--------------------------------------------------------|
E|---5--------3--------8----------------------------------|

e|-------------------------------8---10--12----------------|
b|-------5-5-----5-5-----5-5-------------------------------|
g|------5-5-5---5-5-5---5-5-5------------------------------|
d|---------------------------------10--10------------------|
a|-------------------------------10------------------------|
E|---5--------3--------8-----------------------------------|


e|---------------------------------------------------------|
b|--------------------------------1--1---------------------|
g|---------------------------------0--0--------------------|
d|--3-2-3-2----3-2-3-2--3-2-3-2----------------------------|
a|-0---0---------------3---3----------3---3----------------|
E|------------3---3----------------------------------------|


Am        G       C
Softly we tremble tonight, 
Am              G                 C
picture perfect fading smiles are all that's left in site, 
Am         G           C
I said I'd never leave you'll never change 
        Am             G               C
I'm not satisfied with where I'm at in life. 

Am    C                F
   Am I supposed to be happy?
 
   With all I ever wanted, it comes with a price. 
Am    C                F
   Am I supposed to be happy?
 
   With all I ever wanted, it comes with a price. 
Am           C                       F
   You said, you said that you would die for me…. 

We made plans to grow old, 
believe me there was truth in all those stories that I told. 
Lost in a simple game cat and mouse are we the same 
people as before this came to light? 

Am I supposed to be happy? 
with all I ever wanted, it comes with a price. 
Am I supposed to be happy? 
with all I ever wanted, it comes with a price. 
You said, you said that you would die for me… 

N.C.                 G   F
You must live for me too...
       G   F              Am C F Am C
For me too...yeah, yeah…
                    F
said that you would die for me… 

Am I supposed to be happy? 
with all I ever wanted, it comes with a price. 
Am I supposed to be happy? 
with all I ever wanted, it comes with a price 
You said, you said that you would die for me.

Suggest correction
Give kudos to tab author, rate the tab!
1 2 3 4 5
comments
print report bad tab
guest
You may want to rate the tab now too:
select rating
Wanna post a correction for this tab? Suggest correction