Oops, an error
Loading. Please wait.

Choke tab

version 3
version 3

Whole song

Interactive

980 views 1 this week
no commentswrite comment
1 2 3 4 5
1 last vote to show rating
add to favorites
×
Save as Personal and add changes to this tab that will be seen only by you. Learn more ›
×
You can save this tab as Personal to edit and correct it or add notes. All changes will be seen only by you. Learn more »
launch autoscroll
font size
0
reset
how to read this tab
guitar tuner
edit
Autoscroll
slow
fast
+/-
esc
set tempo
stop

b- Bend
h- Hammer-on
p- Pull-off
s(/)- Slide
V- start Vibrato; x^x^x^x^ - Vibrato

Part 1
guitar 1 rhythm
E|---------------------------------------------------------------------------|
B|---------------------------------------------------------------------------|
G|-------88888888888888884444444444444444------------------------------------|
D|-6~~~~-6666666666666666222222222222222299999999999999994444444444444444----|
A|-6~~~~-6666666666666666222222222222222299999999999999994444444444444444----|
D|-6~~~~-6666666666666666222222222222222299999999999999994444444444444444----|

Guitara 2 Solo
E|---------------------------------------------------------------------------|
B|---------------------------12-11------12-11------12-11------12-1212--------|
G|-------13----16---------11---------11---------11---------11----------------|
D|-------13x16-16x16---999--9--9--999--9--9--999--9--9--999--9--9------------|
A|-------11----14------------------------------------------------------------|
D|---------------------------------------------------------------------------|
                       ***  *  *  ***  *  *  ***  *  *  ***  *  *
guitara 1
E|---------------------------------------------------------------------------|
B|---------------------------------------------------------------------------|
G|-88888888888888884444444444444444------------------------------------------|
D|-6666666666666666222222222222222299999999999999994444444444444444--4/6-----|
A|-6666666666666666222222222222222299999999999999994444444444444444--4/6-----|
D|-6666666666666666222222222222222299999999999999994444444444444444--4/6-----|

Guitara 2
E|---------------------------------------------------------------------------|
B|---------------------------12-11------12-11------12-11-V11^12^11^12...7/9--|
G|-------13----16---------11---------11---------11---------------------------|
D|-------13x16-16x16---999--9--9--999--9--9--999--9--9--9--------------------|
A|-------11----14------------------------------------------------------------|
D|---------------------------------------------------------------------------|
                       ***  *  *  ***  *  *  ***  *  *  *
Part 2
Guitar 1&2
E|---------------------------------------------------------------------------|
B|---------------------------------------------------------------------------|
G|---------------------------------------------------------------------------|
D|-6666666666666666222222222222222299999999999999994444444444444444----------|
A|-6666666666666666222222222222222299999999999999994444444444444444----------|
D|-6666666666666666222222222222222299999999999999994444444444444444----------|
   ****************************************************************

E|---------------------------------------------------------------------------|
B|---------------------------------------------------------------------------|
G|---------------------------------------------------------------------------|
D|-6666666666666666222222222222222299999999999999994444444444444444----------|
A|-6666666666666666222222222222222299999999999999994444444444444444----------|
D|-6666666666666666222222222222222299999999999999994444444444444444----------|
   *********************************************************

Part 3
Guitar 1
E|---------------------------------------------------------------------------|
B|---------------------------------------------------------------------------|
G|-88888888888888884444444444444444------------------------------------------|
D|-6666666666666666222222222222222299999999999999994444444444444444----------|
A|-6666666666666666222222222222222299999999999999994444444444444444----------|
D|-6666666666666666222222222222222299999999999999994444444444444444----------|

Guitara 2
E|---------------------------------------------------------------------------|
B|---------------------------12-11------12-11------12-11------12-1212--------|
G|-------13----16---------11---------11---------11---------11----------------|
D|-------13x16-16x16---999--9--9--999--9--9--999--9--9--999--9--9------------|
A|-------11----14------------------------------------------------------------|
D|---------------------------------------------------------------------------|
                       ***  *  *  ***  *  *  ***  *  *  ***  *  *

Guitar 1
E|---------------------------------------------------------------------------|
B|---------------------------------------------------------------------------|
G|-88888888888888884444444444444444------------------------------------------|
D|-6666666666666666222222222222222299999999999999994444444444444444--4/6-----|
A|-6666666666666666222222222222222299999999999999994444444444444444--4/6-----|
D|-6666666666666666222222222222222299999999999999994444444444444444--4/6-----|

Guitara 2
E|---------------------------------------------------------------------------|
B|---------------------------12-11------12-11------12-11-V11^12^11^12...7/9--|
G|-------13----16---------11---------11---------11---------------------------|
D|-------13x16-16x16---999--9--9--999--9--9--999--9--9--9--------------------|
A|-------11----14------------------------------------------------------------|
D|---------------------------------------------------------------------------|
                       ***  *  *  ***  *  *  ***  *  *  *

Part 4
Guitar 1&2
E|---------------------------------------------------------------------------|
B|---------------------------------------------------------------------------|
G|---------------------------------------------------------------------------|
D|-6666666666666666222222222222222299999999999999994444444444444444----------|
A|-6666666666666666222222222222222299999999999999994444444444444444----------|
D|-6666666666666666222222222222222299999999999999994444444444444444----------|
   ****************************************************************

E|---------------------------------------------------------------------------|
B|---------------------------------------------------------------------------|
G|---------------------------------------------------------------------------|
D|-6666666666666666222222222222222299999999999999994444444444444444----------|
A|-6666666666666666222222222222222299999999999999994444444444444444----------|
D|-6666666666666666222222222222222299999999999999994444444444444444----------|
   *********************************************************

Part 5
Guitar 1
E|---------------------------------------------------------------------------|
B|---------------------------------------------------------------------------|
G|-88888888888888884444444444444444------------------------------------------|
D|-6666666666666666222222222222222299999999999999994444444444444444----------|
A|-6666666666666666222222222222222299999999999999994444444444444444----------|
D|-6666666666666666222222222222222299999999999999994444444444444444----------|

Guitara 2
E|---------------------------------------------------------------------------|
B|---------------------------12-11------12-11------12-11------12-1212--------|
G|-------13----16---------11---------11---------11---------11----------------|
D|-------13x16-16x16---999--9--9--999--9--9--999--9--9--999--9--9------------|
A|-------11----14------------------------------------------------------------|
D|---------------------------------------------------------------------------|
                       ***  *  *  ***  *  *  ***  *  *  ***  *  *

Guitar 1
E|---------------------------------------------------------------------------|
B|---------------------------------------------------------------------------|
G|-88888888888888884444444444444444------------------------------------------|
D|-6666666666666666222222222222222299999999999999994444444444444444--4/6-----|
A|-6666666666666666222222222222222299999999999999994444444444444444--4/6-----|
D|-6666666666666666222222222222222299999999999999994444444444444444--4/6-----|

Guitara 2
E|---------------------------------------------------------------------------|
B|---------------------------12-11------12-11------12-11-V11^12^11^12...7/9--|
G|-------13----16---------11---------11---------11---------------------------|
D|-------13x16-16x16---999--9--9--999--9--9--999--9--9--9--------------------|
A|-------11----14------------------------------------------------------------|
D|---------------------------------------------------------------------------|
                       ***  *  *  ***  *  *  ***  *  *  *

Part 6
Guitara 1
E|---------------------------------------------------------------------------|
B|---------------------------------------------------------------------------|
G|---------------------------------------------------------------------------|
D|-22222222222222226666666644444642~2222222222222222666666664444462~---------|
A|-22222222222222226666666644444642~2222222222222222666666664444462~---------|
D|-22222222222222226666666644444642~2222222222222222666666664444462~---------|

Guitara 2
E|---------------------------------------------------------------------------|
B|---------------------------------------------------------------------------|
G|-44444444444444448888888866666----44444444444444448888888866666------------|
D|-22222222222222226666666644444642~22222222222222226666666644444642~--------|
A|-22222222222222226666666644444642~22222222222222226666666644444642~--------|
D|-22222222222222226666666644444642~22222222222222226666666644444642~--------|

Guitara 1
E|---------------------------------------------------------------------------|
B|---------------------------------------------------------------------------|
G|---------------------------------------------------------------------------|
D|-22222222222222226666666644444642~22222222222222226666666644444------------|
A|-22222222222222226666666644444642~22222222222222226666666644444pause^^-----|
D|-22222222222222226666666644444642~22222222222222226666666644444------------|
                                                            ****

Guitara 2
E|----------------------------------------------------------------------------|
B|----------------------------------------------------------------------------|
G|-13---16---18---20--18--/---------------------------------------------------|
D|---x24--x8--x16--x8--x8-slide down------------------------------------------|
A|-11---14---16---18--16--/---------------------------------------------------|
D|----------------------------------------------------------------------------|

Part 7
Guitar 1
E|---------------------------------------------------------------------------|
B|---------------------------------------------------------------------------|
G|-88888888888888884444444444444444------------------------------------------|
D|-6666666666666666222222222222222299999999999999994444444444444444----------|
A|-6666666666666666222222222222222299999999999999994444444444444444----------|
D|-6666666666666666222222222222222299999999999999994444444444444444----------|

Guitara 2
E|---------------------------------------------------------------------------|
B|---------------------------12-11------12-11------12-11------12-1212--------|
G|-------13----16---------11---------11---------11---------11----------------|
D|-------13x16-16x16---999--9--9--999--9--9--999--9--9--999--9--9------------|
A|-------11----14------------------------------------------------------------|
D|---------------------------------------------------------------------------|
                       ***  *  *  ***  *  *  ***  *  *  ***  *  *

Guitar 1
E|---------------------------------------------------------------------------|
B|---------------------------------------------------------------------------|
G|-88888888888888884444444444444444------------------------------------------|
D|-6666666666666666222222222222222299999999999999994444444444444444--4/6-----|
A|-6666666666666666222222222222222299999999999999994444444444444444--4/6-----|
D|-6666666666666666222222222222222299999999999999994444444444444444--4/6-----|

Guitara 2
E|---------------------------------------------------------------------------|
B|---------------------------12-11------12-11------12-11-V11^12^11^12...7/9--|
G|-------13----16---------11---------11---------11---------------------------|
D|-------13x16-16x16---999--9--9--999--9--9--999--9--9--9--------------------|
A|-------11----14------------------------------------------------------------|
D|---------------------------------------------------------------------------|
                       ***  *  *  ***  *  *  ***  *  *  *
Guitar 1
E|---------------------------------------------------------------------------|
B|---------------------------------------------------------------------------|
G|-88888888888888884444444444444444------------------------------------------|
D|-6666666666666666222222222222222299999999999999994444444444444444----------|
A|-6666666666666666222222222222222299999999999999994444444444444444----------|
D|-6666666666666666222222222222222299999999999999994444444444444444----------|

Guitara 2
E|---------------------------------------------------------------------------|
B|---------------------------12-11------12-11------12-11------12-1212--------|
G|-------13----16---------11---------11---------11---------11----------------|
D|-------13x16-16x16---999--9--9--999--9--9--999--9--9--999--9--9------------|
A|-------11----14------------------------------------------------------------|
D|---------------------------------------------------------------------------|
                       ***  *  *  ***  *  *  ***  *  *  ***  *  *

Guitar 1
E|---------------------------------------------------------------------------|
B|---------------------------------------------------------------------------|
G|-88888888888888884444444444444444------------------------------------------|
D|-6666666666666666222222222222222299999999999999994444444444444444--4/6-----|
A|-6666666666666666222222222222222299999999999999994444444444444444--4/6-----|
D|-6666666666666666222222222222222299999999999999994444444444444444--4/6-----|

Guitara 2
E|---------------------------------------------------------------------------|
B|---------------------------12-11------12-11------12-11-V11^12^11^12...7/9--|
G|-------13----16---------11---------11---------11---------------------------|
D|-------13x16-16x16---999--9--9--999--9--9--999--9--9--9--------------------|
A|-------11----14------------------------------------------------------------|
D|---------------------------------------------------------------------------|
                       ***  *  *  ***  *  *  ***  *  *  *

End

Lirics
Look into my eyes
I am the one who you despise
Cause I exposed your lies
And it's my turn to watch you burn (to watch you burn)

I hope you choke
On the letters that you wrote
Telling me that you will be here 'til the end
You'll never see
A different side to me
A side that you just did not ever understand

Sing it like last time
With every line
Ends with a rhyme
You'll get great reviews
But I refuse to be reused (to be reused)

I hope you choke
On the promises you broke
Telling me that you would always be my friend
You'll never see
A different side to me
A side that you just did not ever understand

I hope you choke (on the messages you wrote)
I hope you choke (on the promises you broke)
I know you'll choke (on the messages you wrote)
I know you'll choke (I hope you'll choke)

            
            
Suggest correction
Creating personal tab
Creating personal tab
You can edit any tab online and save it as your Personal.

You can edit, replace or remove any tab part or add personal notes – all changes will be seen only by you.

Personal tabs can be accessed anytime from any device, even offline.
Learn more »
Give kudos to tab author, rate the tab!
1 2 3 4 5
comments
print report bad tab
guest
You may want to rate the tab now too:
select rating
Wanna post a correction for this tab? Suggest correction