Oops, an error
Loading. Please wait.

Damn Regret Tab

version 1
version 1

Acoustic

Whole song

Interactive

2,289 views 3 this week
no commentswrite comment
1 2 3 4 5
1 last vote to show rating
add to favorites
launch autoscroll
font size
0
reset
how to read this tab
guitar tuner
Autoscroll
slow
fast
+/-
esc
set tempo
stop
Help us to improve Ultimate-Guitar.com Take our survey!
×
Author
Tuning
D A D G B E
DAMN REGRET(ACOUSTIC)- The Red Jumpsuit Apparatus

  *The rhythm guitar in the intro, outro, chorus and bridge's strumming pattern
   is not written, you can figure it out yourselves

INTRO

Lead 

|-----5-------5-------5-|
|-2h3---3-2h3---3-2h3---|
|-2-----2-2-----2-2-----|
|-----------------------| 5x
|-----------------------|
|-----------------------|

|-----5-----3-0-2-------|
|-2h3---3-2-------------|
|-2-----2---------------|
|-----------------------|
|-----------------------|
|-----------------------|

|-----5-------5-------5-|
|-2h3---3-2h3---3-2h3---|
|-2-----2-2-----2-2-----|
|-----------------------| 3x
|-----------------------|
|-----------------------|

|-----5-----3-0-2-------|
|-2h3---3-2-------------|
|-2-----2---------------|
|-----------------------|
|-----------------------|
|-----------------------|

Rhythm

|-----------------------------------|
|-3--------3-----------------3----3-|
|-2--------2--------7--------4----2-|
|-0--------2--------5--------4----2-| 2x
|-0--------0--------5--------2----0-|
|-0--------0--------5-------------0-|




VERSE 1

Rhythm

|----------2---------------------------------|
|----------3--------7------------------------|
|-2--------2--------7--------------2/4-2-0---|
|-0--------2--------5---------0-4----------4-|
|-0--------0--------5------------------------|
|-0--------0--------5--------4---4-----------|


|----------2---------------------------------|
|-3--------3--3-----7------------------------|
|----------2----2---7------------4-----------|
|----------2--------5----------4---4-----5---|
|----------0--------5--------2---------5---5-|
|----------0--------5----------------5-------|

PRE-CHORUS

Rhythm


|-------------------------------------------------------|
|-------------------------------------------------------|
|-------------------------------------------------------|
|-2-2-2-2-2-2-2-4-5-5-5-5-5-5-5-9-9-9-7-7-7-7-5-5-5-5-7-|
|-2-2-2-2-2-2-2-4-5-5-5-5-5-5-5-9-9-9-7-7-7-7-5-5-5-5-7-|
|-2-2-2-2-2-2-2-4-5-5-5-5-5-5-5-9-9-9-7-7-7-7-5-5-5-5-7-|

CHORUS

Lead

|-----5-------5-------5-|
|-2h3---3-2h3---3-2h3---|
|-2-----2-2-----2-2-----|
|-----------------------| 3x
|-----------------------|
|-----------------------|

|-----5-----3-0-2-------|
|-2h3---3-2-------------|
|-2-----2---------------|
|-----------------------|
|-----------------------|
|-----------------------|

|-----5-------5-------5-|
|-2h3---3-2h3---3-2h3---|
|-2-----2-2-----2-2-----|
|-----------------------| 3x
|-----------------------|
|-----------------------|

|-----5-----3-0-2-------|
|-2h3---3-2-------------|
|-2-----2---------------|
|-----------------------|
|-----------------------|
|-----------------------|

Rhythm

|-----------------------------------|
|-3--------3-----------------3----3-|
|-2--------2--------7--------4----2-|
|-0--------2--------5--------4----2-| 2x
|-0--------0--------5--------2----0-|
|-0--------0--------5-------------0-|

VERSE 2


|---------------------------------------------|
|-3----3/5-5--------7-------------------------|
|-2--2-----2--2--2--7---7-----------2/4-2-0---|
|-0-0------2-2--2---5---5------0-4----------4-|
|-0--------0---0----5--5----------------------|
|-0--------0--------5-5------4-----4----------|

|---------------------------------------------|
|-3----3/5-5-3------7-------------------------|
|-2--2-----2---2----7---7---------4-----------|
|-0-0------2---2-2--5---5-------4---4-----5---|
|----------0--------5--5------2---------5---5-|
|----------0--------5-5---------------5-------|


PRE-CHORUS

Rhythm

|---------------------------------------------------------|
|---------------------------------------------------------|
|---------------------------------------------------------|
|-2-2-2-2-2-2-2-4-5-5-5-5-5-5-5-9-9-9-7-7-7-7-5-5-5-5-7-7-|
|-2-2-2-2-2-2-2-4-5-5-5-5-5-5-5-9-9-9-7-7-7-7-5-5-5-5-7-7-|
|-2-2-2-2-2-2-2-4-5-5-5-5-5-5-5-9-9-9-7-7-7-7-5-5-5-5-7-7-|


CHORUS

Lead

|-----5-------5-------5-|
|-2h3---3-2h3---3-2h3---|
|-2-----2-2-----2-2-----|
|-----------------------| 3x
|-----------------------|
|-----------------------|

|-----5-----3-0-2-------|
|-2h3---3-2-------------|
|-2-----2---------------|
|-----------------------|
|-----------------------|
|-----------------------|

|-----5-------5-------5-|
|-2h3---3-2h3---3-2h3---|
|-2-----2-2-----2-2-----|
|-----------------------| 3x
|-----------------------|
|-----------------------|

Rhythm

|-----------------------------------|
|-3--------3-----------------3----3-|
|-2--------2--------7--------4----2-|
|-0--------2--------5--------4----2-| 
|-0--------0--------5--------2----0-|
|-0--------0--------5-------------0-|

|-----------------------------------|
|-3--------3-----------------2------|
|-2--------2--------7--------2------|
|-0--------2--------5--------2------| 
|-0--------0--------5--------0------|
|-0--------0--------5--------0------|


BRIDGE

|----------------------------------------|
|----------------------------------------|
|-4--------------------------------------|
|-4--------5--------0--------7-7-7-------|
|-2--------5--------0--------7-7-7-------|
|----------5--------0--------7-7-7-6-7-8-|
  
|----------------------------------------|
|---------------------------------3------|
|---------------------------------2------|
|-9--------5--------0000000000000-0------|
|-9--------5--------0000000000000-0------|
|-9--------5--------0000000000000-0------|
                    

CHORUS

Lead

|-----5-------5-------5-|
|-2h3---3-2h3---3-2h3---|
|-2-----2-2-----2-2-----|
|-----------------------| 3x
|-----------------------|
|-----------------------|

|-----5-----3-0-2-------|
|-2h3---3-2-------------|
|-2-----2---------------|
|-----------------------|
|-----------------------|
|-----------------------|

|-----5-------5-------5-|
|-2h3---3-2h3---3-2h3---|
|-2-----2-2-----2-2-----|
|-----------------------| 3x
|-----------------------|
|-----------------------|

|-----5-----3-0-2-------|
|-2h3---3-2-------------|
|-2-----2---------------|
|-----------------------|
|-----------------------|
|-----------------------|

|--------------------------------------------------------------|
|-3-2-3-2-3-2-3-2-3-2-3-2-3-2-3-2-3-2-3-2-3-2-3-2-3-2-3-2-/7-5-|
|--------------------------------------------------------------|
|--------------------------------------------------------------| 2x
|--------------------------------------------------------------|
|--------------------------------------------------------------|

Rhythm

|-----------------------------------|
|-3--------3-----------------3----3-|
|-2--------2--------7--------4----2-|
|-0--------2--------5--------4----2-| 4x
|-0--------0--------5--------2----0-|
|-0--------0--------5-------------0-|

OUTRO

Lead

|-----5-------5-------5-|
|-2h3---3-2h3---3-2h3---|
|-2-----2-2-----2-2-----|
|-----------------------| 
|-----------------------|



Rhythm

|-----------------|
|-3-------------2-|
|-2--------4----2-|
|-0--------4----2-|
|-0--------2----0-|
|-0-------------0-|




Suggest correction
Give kudos to tab author, rate the tab!
1 2 3 4 5
comments
print report bad tab
guest
You may want to rate the tab now too:
select rating
Wanna post a correction for this tab? Suggest correction