Oops, an error
Loading. Please wait.

Damn Regret Bass Tab

version 1
version 1

Whole song

Interactive

9,686 views 3 this week
8 commentsread comments
1 2 3 4 5
excellent!
x 10
add to favorites
launch autoscroll
font size
0
reset
guitar tuner
Tab Pro tools
  • play this tab
  • loop segment
  • change instrument
  • show fretboard
  • metronome
×
Best way to learn
"Damn Regret"
Autoscroll
slow
fast
+/-
esc
set tempo
stop
it switches up so just be aware

intro(0:04):
G|---------------------------------------------------------------------|
D|---------------------------------------------------------------------|
A|---55555-------------------222---------------------------------------|
E|-----------55555---33333------0000-----------------------------------|(x2)

Verse(0:20):
G|---------------------------------------------------------------------|
D|---------------------------------------------------------------------|
A|---555555-000000-----------------------------------------------------|
E|-------------------333333-2~--3~-------------------------------------|(x2)

Bridge(0:36)
G|---------------------------------------------------------------------|
D|---------------------------------------------------------------------|
A|--------------------2~-0~-20-----0-----------------------------------|
E|0000-22-3333~-333-----------3333-------------------------------------|(x1)

Chorus(0:44)
G|---------------------------------------------------------------------|
D|---------------------------------------------------------------------|
A|---55555-------------------222---------------------------------------|
E|-----------55555---33333------0000-----------------------------------|(x2)

Verse(1:00):
G|---------------------------------------------------------------------|
D|---------------------------------------------------------------------|
A|---555555-000000-----------------------------------------------------|
E|-------------------333333-2~--3~-------------------------------------|(x2)

Chorus(1:25)
G|---------------------------------------------------------------------|
D|---------------------------------------------------------------------|
A|---55555-------------------222---------------------------------------|
E|-----------55555---33333------0000-----------------------------------|(x2)

Break(1:42 slow down)
G|---------------------------------------------------------------------|
D|---------------------------------------------------------------------|
A|2~22222-------5~55555-0~00000---2~22222--------0~00000-0~00000-------|
E|-------3~33333--------------------------3~33333----------------------|

Chorus(1:58)
G|---------------------------------------------------------------------|
D|---------------------------------------------------------------------|
A|---55555-------------------222---------------------------------------|
E|-----------55555---33333------0000-----------------------------------|(x2)

Outro(2:14):
G|---------------------------------------------------------------------|
D|---------------------------------------------------------------------|
A|---55555555-00000000-------------------------------------------------|
E|--------------------333333-2222-0000---------------------------------|(x2)

G|-----------------|
D|-----------------|
A|-----------------|
E|33333--5~---3~---|


HAVE FUN!
im pretty sure there all right i went over it with my teacher and hes a genius at bass 
he said its right so have fun guys its a sick song
comments
print report bad tab
8 comments total. Showing first comments.
0 reply
spencer Cr wrote on December 18 2006, 07:32 pm

well if you teacher says it's good chances are it is good. teachers are usaualy right, i don't have a bass, but i played it on me guitar and despite the low-highness difference. it seemed right. so good job 5*

0 reply
roguebassist wrote on December 26 2006, 09:04 pm

The outline is right. There is a ouple notes missing. Very good. Worthy tab.

0 reply
PizzaMiLiTiA wrote on January 17 2007, 07:39 pm

It's great for the most part, but at the chorus where you say it drops to open E, it sounds much much more accurate if it's an open A instead. Otherwise, good job.

I want to post or [tab]
guest
You may want to rate the tab now too:
select rating
Please do not post tabs as comments. Select "correction" instead!