Oops, an error
Loading. Please wait.

Damn Regret Tab

version 1
version 1

Whole song

Interactive

27,718 views 9 this week
9 commentsread comments
1 2 3 4 5
accurate
x 8
add to favorites
launch autoscroll
font size
0
reset
how to read this tab
guitar tuner
Autoscroll
slow
fast
+/-
esc
set tempo
stop
Help us to improve Ultimate-Guitar.com Take our survey!
×
Author
Difficulty
Tuning
novice
D A D G B E
Intro:  Repeated a couple times
e|---------------------------------------------------------------------------|
B|---------------------------------------------------------------------------|
G|-------6/7-7--6/7-7---6/7-7-6/7-7------------------------------------------|
D|---------------------------------------------------------------------------|
A|---------------------------------------------------------------------------|
D|---------------------------------------------------------------------------|
Then Second Guitar comes In:
e|---------------------------------------------------------------------------|
B|---------------------------------------------------------------------------|
G|-7-------------------------------------------------------------------------|
D|-7-X5---7-----5-----9-9-9-7------------------------------------------------|
A|-5------7-X5--5-X5--9-9-9-7------------------------------------------------|
D|-0------7-----5-----9-9-9-7--7-7h9-7---------------------------------------|

Verse: You can figure out the strummming pattern for each chord
e|----------------------------------------------------------------------------------|
B|----------------------------------------------------------------------------------|
G|-7--------------------------------------------------------------------------------|
D|-7--7--5---4---5------------------------------------------------------------------|
A|-5--7--5---4---5------------------------------------------------------------------|
D|-0--7--5---4---5------------------------------------------------------------------|

e|-------------------------------------------------------------|
B|-------------------------------------------------------------|
G|-------------------------------------------------------------|
D|-2-2-2-2-2-2-2--4--5-5-5-5-5-5-5-----9-9-9--7-7-7-7/5-5-5-7--|
A|-2-2-2-2-2-2-2--4--5-5-5-5-5-5-5-----9-9-9--7-7-7-7/5-5-5-7--|
D|-2-2-2-2-2-2-2--4--5-5-5-5-5-5-5-----9-9-9--7-7-7-7/5-5-5-7--|
     X X   X X         X X   X X         X X    X X     X

Then The Chorus which is the same as the intro

Then Repeat verse

Then Chorus again

Then the bridge which i have a hard time hearing but this sounds close to me

   Just fool around with this and it sound o.k.
e|-----------------------------------------|
B|--------7--------------------------------|
G|------7---7------------------------------|
D|----7------7--------7-7-7-7-7-7-7-7-7-7--|
A|--5-----------------7-7-7-7-7-7-7-7-7-7--|
D|--------------------7-7-7-7-7-7-7-7-7-7--|
                      X X X X X X X X X

Then the outro, just play the intro again, but the other guitar is doing this:

e|------------------------------------------------------------------------------------|
B|------------------------------------------------------------------------------------|
G|------------------------------------------------------------------------------------|
D|------------------------------------------------------------------------------------|
A|---5-4-5-4-5-7-5-4------------------------------------------------------------------|
D|------------------------------------------------------------------------------------|
 End on:
e|------------------------------------------------------------------------------------|
B|------------------------------------------------------------------------------------|
G|----7-------------------------------------------------------------------------------|
D|----7--------9-9-9-7----------------------------------------------------------------|
A|----5-X5-----9-9-9-7----------------------------------------------------------------|
D|----0--------9-9-9-7----------------------------------------------------------------|

Any Comments or concerns you can email me at Semperxfix10@yahoo.com

| /  slide up
| \  slide down
| h  hammer-on
| p  pull-off
| ~  vibrato
| +  harmonic
| x  Mute note
=================================
Suggest correction
comments
print report bad tab
9 comments total. Showing first comments.
0 reply
runkidrun06 30 wrote on September 27 2006, 07:55 pm

it sucks,, not accurate

0 reply
semperxfix10 79 wrote on September 27 2006, 08:48 pm

how is it not accurate?

0 reply
semperxfix10 79 wrote on September 27 2006, 08:58 pm

i seen them live at Warped tour '06, its accurate

guest
You may want to rate the tab now too:
select rating
Wanna post a correction for this tab? Suggest correction