Oops, an error
Loading. Please wait.

Damn Regret tab

version 2
version 2

Interactive

44,418 views 12 this week
24 commentsread comments
1 2 3 4 5
x 21
add to favorites
×
Save as Personal and add changes to this tab that will be seen only by you. Learn more ›
×
You can save this tab as Personal to edit and correct it or add notes. All changes will be seen only by you. Learn more »
launch autoscroll
font size
0
reset
how to read this tab
guitar tuner
edit
Autoscroll
slow
fast
+/-
esc
set tempo
stop
INTRO:guitar one(keep playing this until guitar 2 finishes)
e|----------------------------------------------|
B|----------------------------------------------|
G|-------6/7-7--6/7-7---6/7-7-6/7-7-------------|
D|----------------------------------------------|
A|----------------------------------------------|
D|----------------------------------------------|

Guitar 2:
e|----------------------------------------------|
B|----------------------------------------------|
G|-77777----------------------------------------|
D|-77777----77777---55555--9-9-9\7--------------|   x2
A|-55555----77777---55555--9-9-9\7--5-5-7-5-----|
D|----------77777---55555--9-9-9\7--------------|

both guitars:
e|----------------------------------------------|
B|----------------------------------------------|
G|-7--------------------------------------------|
D|-7(R)-7----5----4-5---------------------------|   x2
A|-5----7(R)-5(R)-4-5---------------------------|
D|------7----5----4-5---------------------------|

e|----------------------------------------------|
B|----------------------------------------------|
G|----------------------------------------------|
D|-222-222-/4-555-555\2--999-777--55-5-7--------|
A|-222-222-/4-555-555\2--999-777--55-5-7--------|
D|-222-222-/4-555-555\2--999-777--55-5-7--------|
    xx  xx     xx  xx x  xx   xx     x
guitar one:(keep playing till guitar to finishes)
e|----------------------------------------------|
B|----------------------------------------------|
G|-------6/7-7--6/7-7---6/7-7-6/7-7-------------|
D|----------------------------------------------|
A|----------------------------------------------|
D|----------------------------------------------|

Guitar 2:
e|----------------------------------------------|
B|----------------------------------------------|
G|-77777----------------------------------------|
D|-77777----77777---55555--9-9-9\7--------------|   x2
A|-55555----77777---55555--9-9-9\7--5-5-7-5-----|
D|----------77777---55555--9-9-9\7--------------|

both guitars:
e|----------------------------------------------|
B|----------------------------------------------|
G|-7--------------------------------------------|
D|-7(R)-7----5----4-5---------------------------|   x2
A|-5----7(R)-5(R)-4-5---------------------------|
D|------7----5----4-5---------------------------|

e|----------------------------------------------|
B|----------------------------------------------|
G|----------------------------------------------|
D|-222-222-/4-555-555\2--999-777--55-5-7-7------|
A|-222-222-/4-555-555\2--999-777--55-5-7-7------|
D|-222-222-/4-555-555\2--999-777--55-5-7-7------|
    xx  xx     xx  xx x  xx   xx     x
guitar one:(keep playing till guitar to finishes)
e|----------------------------------------------|
B|----------------------------------------------|
G|-------6/7-7--6/7-7---6/7-7-6/7-7-------------|
D|----------------------------------------------|
A|----------------------------------------------|
D|----------------------------------------------|

Guitar 2:
e|----------------------------------------------|
B|----------------------------------------------|
G|-77777----------------------------------------|
D|-77777----77777---55555--9-9-9\7--------------|
A|-55555----77777---55555--9-9-9\7--5-5-7-5-----|
D|----------77777---55555--9-9-9\7--------------|
guitar 2:
e|----------------------------------------------|
B|----------------------------------------------|
G|-77777----------------------------------------|
D|-77777----77777---55555--9--------------------|
A|-55555----77777---55555--9(R)-----------------|
D|----------77777---55555--9--------------------|

e|------------------------------------------------------|
B|--------6---------6-----------------------------------|
G|------6---6-----6--6----------------------------------|
D|----6------6--6-----6-(x2)---7-7-7-7-7-7-7-7-7-7------|
A|--4--------------------------7-7-7-7-7-7-7-7-7-7------|
D|-----------------------------7-7-7-7-7-7-7-7-7-7------|
                               X X X X X X X X X

ONLY GUITAR 2!:
e|----------------------------------------------|
B|----------------------------------------------|
G|-77777----------------------------------------|
D|-77777----77777---55555--9-9-9\7--------------|
A|-55555----77777---55555--9-9-9\7--5-5-7-5-----|
D|----------77777---55555--9-9-9\7--------------|

after that the first one comes in and play with guitar 2 until he finishes
guitar 1:
e|----------------------------------------------|
B|----------------------------------------------|
G|-------6/7-7--6/7-7---6/7-7-6/7-7-------------|
D|----------------------------------------------|
A|----------------------------------------------|
D|----------------------------------------------|

Guitar 2:
e|----------------------------------------------|
B|----------------------------------------------|
G|-77777----------------------------------------|
D|-77777----77777---55555--9-9-9\7--------------|   x2
A|-55555----77777---55555--9-9-9\7--5-5-7-5-----|
D|----------77777---55555--9-9-9\7--------------|

BOTH GUITARS
e|----------------------------------------------|
B|----------------------------------------------|
G|-77777777-------------------------------------|
D|-77777777----77777777---55555555--999-777-----|   x2
A|-55555555----77777777---55555555--999-777-----|
D|-------------77777777---55555555--999-777-----|

e|----------------------------------------------|
B|----------------------------------------------|
G|-77777----------------------------------------|
D|-77777---9\-7---------------------------------|
A|-55555---9\-7---------------------------------|
D|---------9\-7---------------------------------|

\= slide down
/= slide up
R= let ring
x= mute note


im only 14 and this is my first ever posted tab so i hope yall like it. if it dont sound 
right its because i couldnt really get the whole thing. GOOD LUCK

            
            
Suggest correction
Creating personal tab
Creating personal tab
You can edit any tab online and save it as your Personal.

You can edit, replace or remove any tab part or add personal notes – all changes will be seen only by you.

Personal tabs can be accessed anytime from any device, even offline.
Learn more »
comments
print report bad tab
24 comments total. Showing first comments.
+4 reply
axethrower13 73 Mar 30, 2007 09:42 PM

dude mikegz, im not hating on you or your comment or anything but who the f*uck taught you how to type? im just sayin. great tab BTW.

-1 reply
uiop21 349 Apr 14, 2007 08:30 AM

Now, this is probably wrong, but could the intro be:
e|-0-0-0-0-0-0-0-0-|
B|-4h5-5-5-4h5-5-5-|

??

-1 reply
x_kitto_x 191 May 09, 2007 08:06 PM

I think this is how the intro goes, just repeat it.

e-0---0-0-0---0-0-0---0-0---0-0---------
B-4H5-5-5-4H5-5-5-4H5-5-4H5-5-5---------
G---------------------------------------
D---------------------------------------
A---------------------------------------
E---------------------------------------

guest
You may want to rate the tab now too:
select rating
Wanna post a correction for this tab? Suggest correction