Oops, an error
Loading. Please wait.

Damn Regret Tab

version 3
version 3

Whole song

Interactive

9,359 views 1 this week
2 commentsread comments
1 2 3 4 5
x 3
add to favorites
launch autoscroll
font size
0
reset
how to read this tab
guitar tuner
Autoscroll
slow
fast
+/-
esc
set tempo
stop
Help us to improve Ultimate-Guitar.com Take our survey!
×
Author
Difficulty
intermediate
Damn Regret
By The Red Jumpsuit Apparatis
Tabbed by Jordan O'Brien

/ - slide
* - palm mute

Intro
  Guitar 1
e|-----------------------------------------------------|
B|-----------------------------------------------------|
G|-6/7-77--6/7-77--5/7-7-------------------------------|
D|-x-x-xx--x-x-xx--x-x-x-------------------------------|   X10
A|-4/5-55--4/5-55--4/5-5-------------------------------|
E|-----------------------------------------------------|

  Guitar 2
e|-----------------------------------------------------|
B|-----------------------------------------------------|
G|-----------------------------------------------------|
D|--77777----------------------------------------------|
A|--55555--77777--55555--999-7--55575------------------|
E|---------55555--33333--777-5-------------------------|

e|-----------------------------------------------------|
B|-----------------------------------------------------|
G|-----------------------------------------------------|
D|--77777----------------------------------------------|
A|--55555--77777--55555--999-7-7-----------------------|
E|---------55555--33333--777-5-5-----------------------|

Verse 1

e|-----------------------------------------------------|
B|-----------------------------------------------------|
G|-----------------------------------------------------|
D|--5~-----------------5~------------------------------|
A|--7~--7~--5~--4~-5~--7~--7~--5~--9~-7~---------------|
E|------5~--3~--2~-3~------5~--3~--7~-5~---------------|

Pre Chorus

e|-----------------------------------------------------|
B|-----------------------------------------------------|
G|-----------------------------------------------------|
D|-----------------------------------------------------|
A|--77777777--55555555--999--7777--555--7--------------|
E|--55555555--33333333--777--5555--333--5--------------|
     ** ** *   ** ** *   **   **    *
Chorus

 Guitar 1
e|-----------------------------------------------------|
B|-----------------------------------------------------|
G|-6/7-77--6/7-77--5/7-7-------------------------------|
D|-x-x-xx--x-x-xx--x-x-x-------------------------------|   X8
A|-4/5-55--4/5-55--4/5-5-------------------------------|
E|-----------------------------------------------------|

  Guitar 2
e|-----------------------------------------------------|
B|-----------------------------------------------------|
G|-----------------------------------------------------|
D|--77777----------------------------------------------|
A|--55555--77777--55555--999-7--55575------------------|
E|---------55555--33333--777-5-------------------------|

e|-----------------------------------------------------|
B|-----------------------------------------------------|
G|-----------------------------------------------------|
D|--77777----------------------------------------------|
A|--55555--77777--55555--999-7-7-----------------------|
E|---------55555--33333--777-5-5-----------------------|

Verse 2

e|-----------------------------------------------------|
B|-----------------------------------------------------|
G|-----------------------------------------------------|
D|--7~7~7~--------------------7~7~7~-------------------|
A|--5~5~5~--7~7~7~--5~--4~5~--5~5~5~--7~7~7~--5~--9~5~-|
E|----------5~5~5~--3~--2~3~----------5~5~5~--3~--7~3~-|

Pre Chorus

e|-----------------------------------------------------|
B|-----------------------------------------------------|
G|-----------------------------------------------------|
D|-----------------------------------------------------|
A|--77777777--55555555--999--7777--555--77-------------|
E|--55555555--33333333--777--5555--333--55-------------|
     ** ** *   ** ** *   **   **    *

Chorus Again

Interlude

 Guitar 1
e|-----------------------------------------------------|
B|-----------------------------------------------------|
G|-----------------------------------------------------|
D|--7~-------------------------------------------------|   x2
A|--5~--5~--9~--7~-------------------------------------|
E|------3~--7~--5~-------------------------------------|

 Guitar 2
e|-----------------------------------------------------|
B|-----------------------------------------------------|
G|--76767676767676767676767676767676-------------------|
D|-----------------------------------------------------|  x2
A|-----------------------------------------------------|
E|-----------------------------------------------------|

Chorus (just guitar 2 at first)

 Guitar 2
e|-----------------------------------------------------|
B|-----------------------------------------------------|
G|-----------------------------------------------------|
D|--77777----------------------------------------------|
A|--55555--77777--55555--999-7--55575------------------|
E|---------55555--33333--777-5-------------------------|

e|-----------------------------------------------------|
B|-----------------------------------------------------|
G|-----------------------------------------------------|
D|--77777----------------------------------------------|
A|--55555--77777--55555--999-7-7-----------------------|
E|---------55555--33333--777-5-5-----------------------|

 Guitar 1 (comes in half way through chorus)
e|-----------------------------------------------------|
B|-----------------------------------------------------|
G|-6/7-77--6/7-77--5/7-7-------------------------------|
D|-x-x-xx--x-x-xx--x-x-x-------------------------------|   X4
A|-4/5-55--4/5-55--4/5-5-------------------------------|
E|-----------------------------------------------------|

Outro

 Guitar 2
e|-----------------------------------------------------|
B|-----------------------------------------------------|
G|-----------------------------------------------------|
D|--77777777-------------------------------------------|
A|--55555555--77777777--55555555--9999--7777-----------|
E|------------55555555--33333333--7777--5555-----------|

e|-----------------------------------------------------|
B|-----------------------------------------------------|
G|-----------------------------------------------------|
D|--77777777-------------------------------------------|
A|--55555555--77777777--55555555--9999--7777--77777--9-|7~
E|------------55555555--33333333--7777--5555--55555--7-|5~

 Guitar 1
e|-----------------------------------------------------|
B|-----------------------------------------------------|
G|-----------------------------------------------------|
D|--7/6-7/6-7/6-7/6------------------------------------| x8
A|--5/4-5/4-5/4-5/4------------------------------------|
E|-----------------------------------------------------|

end
kk this is my first tab ever
im pretty sure its right.
sikk
later skaters
Suggest correction
Give kudos to tab author, rate the tab!
1 2 3 4 5
comments
print report bad tab
2 comments total.
0 reply
Trivium89 10 Dec 28, 2008 09:40 PM

im pretty sure that the rhythm in the chorus is only three times a chord. like this.

e|-----------------------------------------------|
B|-----------------------------------------------|
G|-----------------------------------------------|
D|--777------------------------------------------|
A|--555--777--555--999-7--55575------------------|
E|-------555--333--777-5-------------------------|

e|-----------------------------------------------|
B|-----------------------------------------------|
G|-----------------------------------------------|
D|--777------------------------------------------|
A|--555--777--555--999-7-7-----------------------|
E|-------555--333--777-5-5-----------------------|

0 reply
smartin6988 177 Oct 24, 2009 01:48 PM

this song is in drop D so the chorus is

E|----------------------------|
B|----------------------------|
G|----------------------------|
D|-000---777---555---999-7-77-|
A|-000---777---555---999-7-77-|
D|-000---777---555---999-7-77-|

guest
You may want to rate the tab now too:
select rating
Wanna post a correction for this tab? Suggest correction