Oops, an error
Loading. Please wait.

Damn Regret Tab

version 4
version 4

Whole song

Interactive

6,508 views 1 this week
3 commentsread comments
1 2 3 4 5
please rate
add to favorites
launch autoscroll
font size
0
reset
how to read this tab
guitar tuner
Autoscroll
slow
fast
+/-
esc
set tempo
stop
Help us to improve Ultimate-Guitar.com Take our survey!
×
Author
Difficulty
Tuning
novice
D A D G B E
alrite so this is a sweet song nd i decided 2 post first guitar cuz alot of them had 
so if u need second look on another tab

Intro (play till verse)
e-5-555-555-55-555-555-5-
B-2h332h332h32h332h332h3-
G------------------------|
D------------------------|
A------------------------|
D------------------------|

Verse(play twice)          first time  second time
e------------------------ ------------ -------|
B------------------------ ------------ -------|
G-7-77-77---------------- ------------ -4--6--|
D-7-77-77-7-77-77-5-55-55 -4-5-------- -x--x--|
A-5-55-55-7-77-77-5-55-55 -4-5-------- -2--4--|
D---------7-77-77-5-55-55 -4-5-------- -------|

Pre-Chorus (both guitars)(to lazy put palm muting in not
hard easy to figure out)
e-----------------------------------------------------|
B-----------------------------------------------------|
G4--4--4/6/7--7--7/111111/9999-7777/9-----------------|
D2222222/4/5555555/9-9-9\7777\5555/-7-----------------|
A2222222/4/5555555/9-9-9\7777\5555/-7-----------------|
D-----------------------------------------------------|

Chorus
e-5-555-555-55-555-555-5-
B-2h332h332h32h332h332h3-
G------------------------|
D------------------------|
A------------------------|
D------------------------|

Verse 2                   first end    second end
e------------------------ ------------ -------|
B------------------------ ------------ -------|
G-7-77-77---------------- ------------ -4--6--|
D-7-77-77-7-77-77-5-55-55 -4-5-------- -x--x--|
A-5-55-55-7-77-77-5-55-55 -4-5-------- -2--4--|
D---------7-77-77-5-55-55 -4-5-------- -------|

Pre chorus
e-----------------------------------------------------|
B-----------------------------------------------------|
G4--4--4/6/7--7--7/111111/9999-7777/9-9---------------|
D2222222/4/5555555/9-9-9\7777\5555/-7-9---------------|
A2222222/4/5555555/9-9-9\7777\5555/-7-7---------------|
D-----------------------------------------------------|

Chorus
e-5-555-555-55-555-555-5-
B-2h332h332h32h332h332h3-
G------------------------|
D------------------------|
A------------------------|
D------------------------|

Bridge (play through out)
e------------------------|
B------------------------|
G-7p6h797p67-------------|
D------------------------|
A------------------------|
D------------------------|

Chorus (first time round doesnt play)
e-5-555-555-55-555-555-5-
B-2h332h332h32h332h332h3-
G------------------------|
D------------------------|
A------------------------|
D------------------------|

outro
e------------------------|
B------------------------|
G-76767976---------------|
D-xxxxxxxx---------------|
A-54545754---------------|
D------------------------|

alrite there u have it i think its right but ur intitled to your opionion so go ahead nd 
down wut u think, o ya i think its in drop C


heres the lyrics if u need them

The moon is shining bright
The mood is feeling right
I'll kiss you on your neck
People will stare but we won't care

We're high above the ground
We're nowhere to be found
Empowered by adrenaline
Feel I've been born again

Again, I am repeating myself
And I know it is kind for you
To sit and pretend

[Chorus:]
Damn regret, I'll try to forget
Don't worry about me 'cause I'm refined
Cast my line to see what's behind
Did you think you'd persuade me to let you go?

I'm wishing you were here
My weakness is my fear
Alone I am myself
No reason left for me to care

Distracted by the sound
I hear footsteps all around
Empowered by adrenaline
Feel I've been born again

Again, I am repeating myself
And I know it is kind for you
To sit and pretend

[Chorus]

You're the only one I turn to
When I feel like no one's there
And when I'm lonely in my darkest hour
You give me the power
To sit and pretend

[Chorus]

Did you think I'd forget?
Did you think I'd surrender myself to persuade you to let me go?
Did you think I'd forget?
Did you think I'd surrender myself to persuade you to let me go?
Suggest correction
What's this?
You can suggest a correction to this tab. Community and Mods will review your correction and vote to approve or reject it.
comments
We did not receive enough feedback on this tab! Please rate:
print report bad tab
1 2 3 4 5
3 comments total.
0 reply
HH_Emo_666 924 wrote on October 24 2007, 05:19 pm

if you think its in drop c .. then why dont u tab it in drop c?

0 reply
jonbe9 12 wrote on February 17 2008, 03:29 pm

this track is in DROP C...you can tell from their new live video:
http://www.youtube.com/watch?v=iqEBtUfVwCk

c-7-777-777-77-777-777-7-
A-4h554h554h54h554h554h5-
F------------------------|
C------------------------|
G------------------------|
C------------------------|

and it shows Duke playing the last 3 notes on the pre-chorus obviously in drop c...hope this helps

0 reply
fast-lagardo 159 wrote on November 19 2008, 04:59 pm

awsome tab man!

guest
You may want to rate the tab now too:
select rating
Please do not post tabs as comments. Select "correction" instead!