Oops, an error
Loading. Please wait.

Damn Regret Tab

version 5
version 5

Whole song

Interactive

2,435 views 1 this week
3 commentsread comments
1 2 3 4 5
2 more votes to show rating
add to favorites
launch autoscroll
font size
0
reset
how to read this tab
guitar tuner
Autoscroll
slow
fast
+/-
esc
set tempo
stop
Help us to improve Ultimate-Guitar.com Take our survey!
×
Author
Difficulty
Tuning
novice
D A D G B E
Red Jumpsuit Apparatus
Damn Regret
Drop D

Intro/Chorus:
Guitar 1
e|-------------------------------|
B|-------------------------------|
G|---6/7-7--6/7-7---6/7-7-6/7----|
D|-------------------------------|
A|-------------------------------|
D|-------------------------------|

Guitar 2
e|----------------------------------|
B|----------------------------------|
G|-77777----------------------------|
D|-77777----77777---55555--9-9-9\7--|   x2
A|-55555----77777---55555--9-9-9\7--|
D|----------77777---55555--9-9-9\7--|

Verse 1:
Guitar 1&2
e|---------------------------|
B|-Ring----------------------|
G|-7----R----R----R-R--------|
D|-7----7----5----4-5--------|   x2
A|-5----7----5----4-5--------|
D|------7----5----4-5--------|  

The moon is shining bright
The mood is feeling right
I'll kiss you on your neck
People will stare but we won't care

We're high above the ground
We're nowhere to be found
Empowered by adrenaline
Feel I've been born again

e|----------------------------------------|
B|----------------------------------------|
G|----------------------------------------|
D|-222-222-/4-555-555\2--999-777--55-5-7--|
A|-222-222-/4-555-555\2--999-777--55-5-7--|
D|-222-222-/4-555-555\2--999-777--55-5-7--|

Again, I am repeating myself
And I know it is kind for you 
To sit and pretend

Chorus:
Guitar 1
e|-------------------------------|
B|-------------------------------|
G|---6/7-7--6/7-7---6/7-7-6/7----|        x2
D|-------------------------------|
A|-------------------------------|
D|-------------------------------|

Guitar 2
e|---------------------------------|
B|---------------------------------|
G|-77777---------------------------|
D|-77777---77777---55555--9-9-9\7--|   x2
A|-55555---77777---55555--9-9-9\7--|
D|---------77777---55555--9-9-9\7--|

Damn regret, I'll try to forget
Don't worry about me 'cause I'm refined
Cast my line to see what's behind
Did you think you'd persuade me to let you go?

Verse 2:

Guitar 1&2
e|---------------------------|
B|-R-------------------------|
G|-7----R----R----R-R--------|
D|-7----7----5----4-5--------|   x2
A|-5----7----5----4-5--------|
D|------7----5----4-5--------|  

I'm wishing you were here
My weakness is my fear
Alone I am myself
No reason left for me to care

Distracted by the sound
I hear footsteps all around
Empowered by adrenaline
Feel I've been born again

e|----------------------------------------|
B|----------------------------------------|
G|----------------------------------------|
D|-222-222-/4-555-555\2--999-777--55-5-7--|
A|-222-222-/4-555-555\2--999-777--55-5-7--|
D|-222-222-/4-555-555\2--999-777--55-5-7--|

Again, I am repeating myself
And I know it is kind for you 
To sit and pretend

Break:
Guitar 2:
e|------------------------|---1st-----|-2nd---|
B|------------------------|-----------|-------|
G|-77777------------------|-----------|--R----|
D|-77777---77777---55555--|-9-9-9\7---|--9----|
A|-55555---77777---55555--|-9-9-9\7---|--9----|
D|---------77777---55555--|-9-9-9\7---|--9----|

Damn regret, I'll try to forget
Don't worry about me 'cause I'm refined
Cast my line to see what's behind
Did you think you'd persuade me to let you go?

Guitar 1:
e|--------------------------------------------|
B|--------6---------6-------------------------|
G|------6---6-----6--6------------------------|
D|----6------6--6-----6--x2----7777777777-----|
A|--4--------------------------7777777777-----|
D|-----------------------------7777777777-----|

You're the only one I turn to
When I feel like no one's there
And when I'm lonely in my darkest hour
You give me the power 
To sit and pretend

Guitar 2:
e|----------------------------------|
B|----------------------------------|
G|-77777----------------------------|
D|-77777----77777---55555--9-9-9\7--|
A|-55555----77777---55555--9-9-9\7--|
D|----------77777---55555--9-9-9\7--|

Damn regret, I'll try to forget
Don't worry about me 'cause I'm refined
Cast my line to see what's behind
Did you think you'd persuade me to let you go?

Chorus:
Guitar 1:
e|-------------------------------|
B|-------------------------------|
G|---6/7-7--6/7-7---6/7-7-6/7-7--|  x2
D|-------------------------------|
A|-------------------------------|
D|-------------------------------|

Guitar 2:
e|----------------------------------|
B|----------------------------------|
G|-77777----------------------------|
D|-77777----77777---55555--9-9-9\7--|   x2
A|-55555----77777---55555--9-9-9\7--|
D|----------77777---55555--9-9-9\7--|

Guitar 1&2:
e|--------------------------------------------|
B|--------------------------------------------|
G|-77777777-----------------------------------|
D|-77777777----77777777---55555555--999-777---|   x2
A|-55555555----77777777---55555555--999-777---|
D|-------------77777777---55555555--999-777---|

Outro:
Guitar 1&2:
e|-----------------|
B|-----------------|
G|-77777-----------|
D|-77777---9\-7----|
A|-55555---9\-7----|
D|---------9\-7----|

Did you think I'd forget?
Did you think I'd surrender myself to persuade you to let me go?
Did you think I'd forget?
Did you think I'd surrender myself to persuade you to let me go?
Suggest correction
Give kudos to tab author, rate the tab!
1 2 3 4 5
comments
print report bad tab
3 comments total.
0 reply
ledslayer91 10 Dec 07, 2010 10:21 PM

e|----------------------------------------------|
B|----------------------------------------------|
G|-77777----------------------------------------|
D|-77777----77777---55555--9-9-9-7----7-7-7-7------------|
A|-55555----77777---55555--9-9-9-7----7-7-7-7------------|
D|----------77777---55555--9-9-9-7----7-7-7-7----------|

this is how Guitar 2 should be played

0 reply
ledslayer91 10 Dec 07, 2010 10:30 PM

e|----------------------------------------|
B|----------------------------------------|
G|----------------------------------------|
D|-222-222-/4-555-555----999-777--555-5-7--|
A|-222-222-/4-555-555----999-777--555-5-7--|
D|-222-222-/4-555-555----999-777--555-5-7--|
mm mm mm mm mm mm mm

/- slide
m- palm mute

0 reply
ledslayer91 10 Dec 07, 2010 10:30 PM

e|----------------------------------------|
B|----------------------------------------|
G|----------------------------------------|
D|-222-222-/4-555-555----999-777--555-5-7--|
A|-222-222-/4-555-555----999-777--555-5-7--|
D|-222-222-/4-555-555----999-777--555-5-7--|
mm mm mm mm mm mm mm

/- slide
m- palm mute

guest
You may want to rate the tab now too:
select rating
Wanna post a correction for this tab? Suggest correction