Oops, an error
Loading. Please wait.

Disconnected Tab

version 1
version 1

Intro

Whole song

3,056 views 3 this week
1 commentread comment
1 2 3 4 5
please rate
add to favorites
launch autoscroll
font size
0
reset
how to read this tab
guitar tuner
Autoscroll
slow
fast
+/-
esc
set tempo
stop
Help us to improve Ultimate-Guitar.com Take our survey!
×
Tuning
D A D G B E
This is all I could figure out but this is my first tab so go easy
Intro(repeat twice then play)
e-----------------------------------------------|
B-----------------------------------------------|
G-----------------------------------------------|
D---101010-10b-9-7-10b-9-7----------------------|
A---101010-----------------7b-8-10-7b-8-4-------|
D---101010--------------------------------------|
    . . .

e-------------8(let ring)-------|
B--5b-7h8h7h8-------------------|
G-------------------------------|
D-------------------------------|
A-------------------------------|
D-------------------------------|
verse(x2 or x3)
e---------------------------------|
B---------------------------------|
G---------------------------------|
D--666-888-444--------------------|
A--666-888-444let ring------------|
D--666-888-444--------------------|


well its not perfect but its the best i could do so if u have any advice email me and 
me gcoop3333@yahoo.com
Suggest correction What's this?
You can suggest a correction to this tab. Community and Mods will review your correction and vote to approve or reject it.
comments
We did not receive enough feedback on this tab! Please rate:
print report bad tab
1 2 3 4 5
1 comment total.
0 reply
x_kitto_x 284 wrote on May 23 2007, 07:29 pm

sounds good, but the whole song would be alot better. :]

I want to post or [tab]
guest
You may want to rate the tab now too:
select rating
Please do not post tabs as comments. Select "correction" instead!