Oops, an error
Loading. Please wait.

Disconnected Tab

version 1
version 1

Whole song

14,800 views 3 this week
10 commentsread comments
1 2 3 4 5
excellent!
x 10
add to favorites
launch autoscroll
font size
0
reset
how to read this tab
guitar tuner
Autoscroll
slow
fast
+/-
esc
set tempo
stop
Help us to improve Ultimate-Guitar.com Take our survey!
×
Contributor
xApollox 1,130
Artist: The Red Jumpsuit Apparatus
Song: Disconnected
Album: The Red Jumpsuit Apparatus [2004]
Tuning: Dropped C

*Updated: June 4, 2007
 -Two Guitars

*Note: this is NOT off the new deluxe edition

Guitar I

Intro.
|----------------------------|---------------------------------|
|----------------------------|-----------------------------15~\|
|7777-6-4-/7-6-4-------------|/7-6-4-/7-6-4-14-1414141414------|
|---------------4-5-7-7-5-4--|---------------------------------|
|---------------------------5|---------------------------------|
|----------------------------|---------------------------------|

Verse 1a.
|--------------------------------------|----------------------------------------------------|
|--------------------------------------|----------------------------------------------------|
|--------------------------------------|----------------------------------------------------|
|5/7--7/9--9\5--555/7--7/9--9\5--xxxxxx|7-x-7x9-x-9x5-x-5x5-x-5x7-x-7x9--x-9-x-5-x-5x5-x-5-x|
|5/7--7/9--9\5--555/7--7/9--9\5--xxxxxx|7-x-7x9-x-9x5-x-5x5-x-5x7-x-7x9--x-9-x-5-x-5x5-x-5-x|
|5/7--7/9--9\5--555/7--7/9--9\5--xxxxxx|7-x-7x9-x-9x5-x-5x5-x-5x7-x-7x9--x-9-x-5-x-5x5-x-5-x|

Verse 1b.
|------------------------------|----------------------------------|
|------------------------------|----------------------------------|
|------------------------------|----------------------------------|
|4-45-7090-4/5-7090-5/7-7777777|4445-7090-4/5-7090-5/7-77777777777|
|4-45------4/5------5/7-7777777|4445------4/5------5/7-77777777777|
|4-45------4/5------5/7-7777777|4445------4/5------5/7-77777777777|

Chorus:
|-------------------------------|---------------------------|
|-------------------------------|---------------------------|
|-------------------------------|---------------------------|
|7-------7-------5-------7------|7------7------5------7-----|
|5-(x16)-7-(x16)-5-(x16)-7-(x16)|5-(x8)-7-(x8)-5-(x8)-7-(x8)|
|--------7-------5-------7------|-------7------5------7-----|

Verse 2a.
|---------------------------------------|----------------------------------------------------|
|---------------------------------------|----------------------------------------------------|
|---------------------------------------|----------------------------------------------------|
|555/7--7/9--9\5--555/7--7/9--9\5-xxxxxx|7-x-7x9-x-9x5-x-5x5-x-5x7-x-7x9--x-9-x-5-x-5x5-x-5-x|
|555/7--7/9--9\5--555/7--7/9--9\5-xxxxxx|7-x-7x9-x-9x5-x-5x5-x-5x7-x-7x9--x-9-x-5-x-5x5-x-5-x|
|555/7--7/9--9\5--555/7--7/9--9\5-xxxxxx|7-x-7x9-x-9x5-x-5x5-x-5x7-x-7x9--x-9-x-5-x-5x5-x-5-x|

Verse 2b.
|------------------------------|----------------------------------|
|------------------------------|----------------------------------|
|------------------------------|----------------------------------|
|4-45-7090-4/5-7090-5/7-7777777|4445-7090-4/5-7090-5/7-77777777777|
|4-45------4/5------5/7-7777777|4445------4/5------5/7-77777777777|
|4-45------4/5------5/7-7777777|4445------4/5------5/7-77777777777|

Chorus.
|-------------------------------|---------------------------|
|-------------------------------|---------------------------|
|-------------------------------|---------------------------|
|7-------7-------5-------7------|7------7------5------7-----|
|5-(x16)-7-(x16)-5-(x16)-7-(x16)|5-(x8)-7-(x8)-5-(x8)-7-(x8)|
|--------7-------5-------7------|-------7------5------7-----|

Bridge thingy
|----------------------------|---------------------------------|
|----------------------------|-----------------------------15~\|
|7777-6-4-/7-6-4-------------|/7-6-4-/7-6-4-14-1414141414------|
|---------------4-5-7-7-5-4--|---------------------------------|
|---------------------------5|---------------------------------|
|----------------------------|---------------------------------|

Chorus:
|-------------------------------|---------------------------|
|-------------------------------|---------------------------|
|-------------------------------|---------------------------|
|7-------7-------5-------7------|7------7------5------7-----|
|5-(x16)-7-(x16)-5-(x16)-7-(x16)|5-(x8)-7-(x8)-5-(x8)-7-(x8)|
|--------7-------5-------7------|-------7------5------7-----|

|--------------------|
|--------------------|
|--------------------|
|7777\\\\\\\\\\\\\\\\|
|7777\\\pick slide\\\|
|7777\\\\\\\\\\\\\\\\|
 ....

Chorus:
|-------------------------------|-------------------------------|
|-------------------------------|-------------------------------|
|-------------------------------|-------------------------------|
|7-------7-------5-------7------|7-------7-------5-------7------|
|5-(x16)-7-(x16)-5-(x16)-7-(x16)|5-(x16)-7-(x16)-5-(x16)-7-(x16)|
|--------7-------5-------7------|--------7-------5-------7------|

Outro:
|---------------------------|
|---------------------------|
|---------------------------|
|555/7--7/9--9\5--------//12|
|555/7--7/9--9\5--------//12|
|555/7--7/9--9\5--------//12|

=======================================================================================================

Guitar II

Intro.
|-------------------|-------------------|
|-------------------|-------------------|
|-------------------|-------------------|
|7-77-9-99-5-55-5-55|7-77-9-99-5-55-5-55|
|7-77-9-99-5-55-5-55|7-77-9-99-5-55-5-55|
|7-77-9-99-5-55-5-55|7-77-9-99-5-55-5-55|

Verse 1a.
|------------------------------------|-----------------------------|
|------------------------------------|------------------10-10---10-|
|7/9-9/11-11\7-777/9-9/11-11\7-77777\|9-x-9x11-x-11x-7x-7--7--x-7-x|
|x-x-x-x--x--x-xxx-x-x-x--x--x-------|x-x-xxx--x-x-x-0x-0--0--x-0-x| x2
|5/7-7/9--9\-5-555/7-7/9--9\-5-------|7-x-7x9--x-9-x--x-------x---x|
|------------------------------------|-----------------------------|

Verse 1b.
|------------------------------|----------------------------------|
|------------------------------|----------------------------------|
|-----------------------------6|-----------------------------77777|
|4-45-5070-4/5-5070-5/7-979797-|4445-5070-4/5-5070-5/7-777777-----|
|4-45------4/5------5/7--------|4445------4/5------5/7-777777-----|
|4-45------4/5------5/7--------|4445------4/5------5/7-777777-----|

Chorus:
|--------------------------------------------------|----------------------------------------------|
|--------------------------------------------------|----------------------------------------------|
|11-------9------77-6------7-------6------44-------|11------9------7-6------7------6------4-------|
|x--(x16)-x-(x4)-xx-x-(x8)-x-(x16)-x-(x6)-xx-7-----|x--(x8)-x-(x3)-x-x-(x4)-x-(x8)-x-(x3)-x-7-----|
|9--------7------55-4------5-------4------22-x-(x5)|9-------7------5-4------5------4------2-x-(x4)|
|--------------------------------------------7-----|----------------------------------------7-----|

Verse 2a.
|------------------------------------|-----------------------------|
|------------------------------------|------------------10-10---10-|
|7/9-9/11-11\7-777/9-9/11-11\7-77777\|9-x-9x11-x-11x-7x-7--7--x-7-x|
|x-x-x-x--x--x-xxx-x-x-x--x--x-------|x-x-xxx--x-x-x-0x-0--0--x-0-x| x2
|5/7-7/9--9\-5-555/7-7/9--9\-5-------|7-x-7x9--x-9-x--x-------x---x|
|------------------------------------|-----------------------------|

Verse 2b.
|------------------------------|----------------------------------|
|------------------------------|----------------------------------|
|-----------------------------6|-----------------------------77777|
|4-45-5070-4/5-5070-5/7-979797-|4445-5070-4/5-5070-5/7-777777-----|
|4-45------4/5------5/7--------|4445------4/5------5/7-777777-----|
|4-45------4/5------5/7--------|4445------4/5------5/7-777777-----|

Chorus:
|--------------------------------------------------|----------------------------------------------|
|--------------------------------------------------|----------------------------------------------|
|11-------9------77-6------7-------6------44-------|11------9------7-6------7------6------4-------|
|x--(x16)-x-(x4)-xx-x-(x8)-x-(x16)-x-(x6)-xx-7-----|x--(x8)-x-(x3)-x-x-(x4)-x-(x8)-x-(x3)-x-7-----|
|9--------7------55-4------5-------4------22-x-(x5)|9-------7------5-4------5------4------2-x-(x4)|
|--------------------------------------------7-----|----------------------------------------7-----|

Bridge Thingy:
|-------------------|-------------------|
|-------------------|-------------------|
|-------------------|-------------------|
|7-77-9-99-5-55-5-55|7-77-9-99-5-55-5-55|
|7-77-9-99-5-55-5-55|7-77-9-99-5-55-5-55|
|7-77-9-99-5-55-5-55|7-77-9-99-5-55-5-55|

Chorus:
|--------------------------------------------------|----------------------------------------------|
|--------------------------------------------------|----------------------------------------------|
|11-------9------77-6------7-------6------44-------|11------9------7-6------7------6------4-------|
|x--(x16)-x-(x4)-xx-x-(x8)-x-(x16)-x-(x6)-xx-7-----|x--(x8)-x-(x3)-x-x-(x4)-x-(x8)-x-(x3)-x-7-----|
|9--------7------55-4------5-------4------22-x-(x5)|9-------7------5-4------5------4------2-x-(x4)|
|--------------------------------------------7-----|----------------------------------------7-----|

|--------------------|
|--------------------|
|--------------------|
|7777\\\\\\\\\\\\\\\\|
|7777\\\pick slide\\\|
|7777\\\\\\\\\\\\\\\\|
 ....

|--------------------------------------------------|--------------------------------------------------|
|--------------------------------------------------|--------------------------------------------------|
|11-------9------77-6------7-------6------44-------|11-------9------77-6------7-------6------44-------|
|x--(x16)-x-(x4)-xx-x-(x8)-x-(x16)-x-(x6)-xx-7-----|x--(x16)-x-(x4)-xx-x-(x8)-x-(x16)-x-(x6)-xx-7-----|
|9--------7------55-4------5-------4------22-x-(x5)|9--------7------55-4------5-------4------22-x-(x5)|
|--------------------------------------------7-----|--------------------------------------------7-----|

Outro:
|-------------------|
|--------------10---|
|--------------7----|
|555/7--7/9--9-0----|
|555/7--7/9--9------|
|555/7--7/9--9------|

And there ya have it. Two guitars. should be 100%. If not, leave the comments, 'n I'll 
sure to check it out, 'n update!
comments
print report bad tab
10 comments total. Showing first comments.
0 reply
RJA5410 37 wrote on May 24 2007, 09:53 am

ok this is a really great tab dude... but i think (know) that jumpsuit has 2 guitarists so the parts are probably even easier if you have two. Still a great tab ROCK ON!

0 reply
mythbik 13 wrote on June 3 2007, 04:06 pm

Hey, great tab, but instead of the Intro being like this:

Intro.
|----------------------------|------------------------------|
|----------------------------|--------------------------15~\|
|7777-6-4-7-6-4--------------|7-6-4-7-6-4-14-1414141414-----|
|---------------4-5-7-7-5-4--|------------------------------|
|---------------------------5|------------------------------|
|----------------------------|------------------------------|

shouldnt it be like this:

Intro.
|---------------------------------|--------------------------------|
|---------------------------------|-----------------------------15~|
|7777-6-4-6/7-6-4-2---------------|6/7-6-4-6/7-6-4-14-1414141414---|
|-------------------4-5-7-7-5-4---|--------------------------------|
|-------------------------------5-|--------------------------------|
|---------------------------------|--------------------------------|

I dont know... maybe it just me but there are some notes you skiped and i think those 6's in there make it sound a lot better, what do you think?

0 reply
mythbik 13 wrote on June 3 2007, 04:14 pm

I dont know, playing all of it gets me confused and it sounds like a big mess,ill keep trying, but the strumming is hard RJA5410 is right, theres 2 guitars so yeah maybe thats the problem...

I want to post or [tab]
guest
You may want to rate the tab now too:
select rating
Please do not post tabs as comments. Select "correction" instead!