Oops, an error
Loading. Please wait.

Disconnected Tab

version 2
version 2

Intro

Whole song

1,688 views 1 this week
no commentswrite comment
1 2 3 4 5
please rate
add to favorites
launch autoscroll
font size
0
reset
how to read this tab
guitar tuner
Tab Pro tools
  • play this tab
  • loop segment
  • change instrument
  • show fretboard
  • metronome
Autoscroll
slow
fast
+/-
esc
set tempo
stop
Difficulty
Tuning
intermediate
D A D G B E
Tabbed by:Donuel Mendoza
Email:dj_vidjay@yahoo.com

Lol my account is broken so I had to tab tthis unregistered...dont worry the intro and
is 100% accurte!!!

Tuning: Drop D

Intro for Lead Guitar
e|-------------------------------------------------------------------------|
B|-------------------------------------------------------------------------|
G|-------------------------------------------------------------------------|
D|----------9-8-6--8p9--8p6--8p9--8p6--------------------------------------|
A|-------------------------------------9p7--6-7--7p9--9p7--6---2-----------|
E|-------------------------------------------------------------------------|

e|---------------------------------------------------------------------------|
B|-----------------------------------------------12~-------------------------|
G|--------------------------------11-11-11-11--11----------------------------|
D|----------9-8-6--8p9--8--6p8-----------------------------------------------|
A|---------------------------------------------------------------------------|
E|---------------------------------------------------------------------------|


Intro for Rythm Guitar plz bear with me and figure out the strumming pattern for urself 
a lot guys!!

e|-------------------------------------------------------------------|
B|-------------------------------------------------------------------|
G|-------------------------------------------------------------------|
D|-----10----------5--3-----------------10--------5--3-5-------------|
A|-----10----------5--3-----------------10--------5--3-5-------------|
E|-----10----------5--3-----------------10--------5--3-5-------------|


Verese
guitar lead and rythm

e|--------------------------------------------------|
B|--------------------------------------------------|the strumming pattern
G|--------------------------------------------------| will change during
D|----5-5--5-7--7-7--7-3--3-3--3-5------------------|refrain so listen
A|----5-5--5-7--7-7--7-3--3-3--3-5------------------|carefully to the song
E|----5-5--5-7--7-7--7-3--3-3--3-5------------------|


During refrain insert this:
e|---------------------------------------------------------|
B|---------------------------------------------------------|
G|---------------------------------------------------------|
D|---------------------------------------------------------|
A|-----------12-12----------------12-12--------------------|
E-----10-10--------10-12---10-10--------10-12--------------|

Chorus

The easiest part of the song...no problem for strumming!!!
e|------------------------------------------------|
B|------------------------------------------------|
G|------------------------------------------------|
D|-----10----5----3----5--------------------------|
A|-----10----5----3----5--------------------------|
E|-----10----5----3----5--------------------------|


Then Verse then chorus two times...

if u want deluxe version add me in yahoo messenger dj_vidjay@yahoo.com

That's all hope u like it...

Mga pinoy dian kamustah kyong lhat...gradueyt na nga pla tyo mga munscian!!!

Hi ALELI J PARAISO mahal na mahal kita!!!
comments
We did not receive enough feedback on this tab! Please rate:
print report bad tab
1 2 3 4 5
I want to post or [tab]
guest
You may want to rate the tab now too:
select rating
Please do not post tabs as comments. Select "correction" instead!