Oops, an error
Loading. Please wait.

Disconnected Tab

version 3
version 3

Whole song

1,117 views 1 this week
no commentswrite comment
1 2 3 4 5
3 more votes to show rating
add to favorites
launch autoscroll
font size
0
reset
how to read this tab
guitar tuner
Autoscroll
slow
fast
+/-
esc
set tempo
stop
Help us to improve Ultimate-Guitar.com Take our survey!
×
Author
Disconnected Tab
Album: The Red Jumpsuit Apparatus
Tuning: Dropped D
By: The Red Jumpsuit Apparatus

This is the album version from RJA's oldest self-titled album not the newer version on 
Don't You Fake It Deluxe Edition so if u havent heard this version its different from the 
so dont complain ok please rate and comment and enjoy :P

Intro:
e[-------------------------------------------------------------------------]
B[---------------------------------------------------------------------12b-]
G[------------------------------------------------------12b12b12b12b12b----]
D[-10b-9-7-9-10b-9-7----------------7-10b-9-7-7-10b-9-7--------------------]
A[-------------------7b-8-10-7b-8------------------------------------------]
D[--------------------------------10---------------------------------------]

Verse:
e[-------------------------------------------------------------------------]
B[-------------------------------------------------------------------------]
G[-------------------------------------------------------------------------]
D[-1010-1010--101010-1010-1010-101010106688-88-88--888-88-88-88--66-66-66--]
A[-1010-1010--101010-1010-1010-101010106688-88-88--888-88-88-88--66-66-66--]
D[-1010-1010--101010-1010-1010-101010106688-88-88--888-88-88-88--66-66-66--]

Verse [cont'd]
e[-------------------------------------------------------------------------]
B[-------------------------------------------------------------------------]
G[-------------------------------------------------------------------------]
D[-666-66-66-66666---------------------------------------------------------]
A[-666-66-66-66666---------------------------------------------------------]
D[-666-66-66-66666---------------------------------------------------------]
  [Lighter strokes here]

Chorus:
e[---------------------------------------------------------------------------]
B[---------------------------------------------------------------------------]
G[---------------------------------------------------------------------------]
D[-1010101010101010--66666666--888888888888-44444444-66666666-88888888-------]
A[-1010101010101010--66666666--888888888888-44444444-66666666-88888888-------]
D[-1010101010101010--66666666--888888888888-44444444-66666666-88888888-------]
                                           [---Lighter-Storkes-Here----------]

Repeat Verse and Chorus then Play the Intro and the Chorus again and lead up to...

Chorus[alterned]:
e[-------------------------------------------------------------------------]
B[-------------------------------------------------------------------------]
G[-------------------------------------------------------------------------]
D[-1010101010101010--66666666--888888888888--1010101010101010--66666666----]
A[-1010101010101010--66666666--888888888888--1010101010101010--66666666----]
D[-1010101010101010--66666666--888888888888--1010101010101010--66666666----]

Chorus [alterned[ 
e[-------------------------------------------------------------------------]
B[-------------------------------------------------------------------------]
G[-------------------------------------------------------------------------]
D[--888888888888-----------------------------------------------------------]
A[--888888888888-----------------------------------------------------------]
D[--888888888888-----------------------------------------------------------]

Outro:
e[-------------------------------------------------------------------------]
B[-------------------------------------------------------------------------]
G[-------------------------------------------------------------------------]
D[-1010-1010-10-0~---------------------------------------------------------]
A[-1010-1010-10-0~---------------------------------------------------------]
D[-1010-1010-10-0~---------------------------------------------------------]

Thats it :P
Suggest correction
Give kudos to tab author, rate the tab!
1 2 3 4 5
comments
print report bad tab
guest
You may want to rate the tab now too:
select rating
Wanna post a correction for this tab? Suggest correction