Oops, an error
Loading. Please wait.

Face Down Tab

version 2
version 2

Acoustic

50,021 views 3 this week
9 commentsread comments
1 2 3 4 5
accurate
x 11
add to favorites
launch autoscroll
font size
0
reset
how to read this tab
guitar tuner
Autoscroll
slow
fast
+/-
esc
set tempo
stop
Help us to improve Ultimate-Guitar.com Take our survey!
×
Author
Capo
3rd fret
Tuning - Guitar1 - ( capo on the 3rd fret       0r     g d  a#  f  c  G )

         Guitar1 - ( capo on the 3rd fret/drop f or    g d  a#  f  c  f)
 
          



|-------------------------------|------------------------------------------|
|---------3-------------3-------|-------3---------------3------------------|
|----0------0---0---0-----0---0-|---0-----0---0---0-------0--0-------------|
|--2---2------2---2---2-----2---|------------------------------------------|
|-------------------------------|-3---3-----3---3---3-------3--------------|
|-------------------------------|------------------------------------------|
                                  

|----------------------------------|----------------------------2~----|
|--------3---------------3---------|--------3-------3-----3-----3~----|
|----0------0---0---0------0---0---|----0------0------0---------2~----|
|----------------------------------|-------0------0-----0-------0~----|
|----------------------------------|----------------------------0~----|
|--3--3-------3---3---3------3-----|--2-------------------------2~----|



Verse-

Guitar1

|---------------------------------------------------------------------|
|---------------------------------------------------------------------|
|------------------55-555-55-555-------------------77-777-77-777------|
|--22-222-22-222---55-555-55-555---55-555-55-555---77-777-77-777------|2x
|--22-222-22-222---33-333-33-333---55-555-55-555---55-555-55-555------|
|--00-000-00-000-------------------33-333-33-333----------------------|



Guitar2

|---------------------------------------------------------------------|
|---------------------------------------------------------------------|
|------------------55-555-55-555-------------------77-777-77-777------|
|--22-222-22-222---55-555-55-555---55-555-55-555---77-777-77-777------|
|--22-222-22-222---33-333-33-333---55-555-55-555---55-555-55-555------|
|--22-222-22-222-------------------55-555-55-555----------------------|



|-----------------------------------------------------------------------|
|-----------------------------------------------------------------------|
|------------------55-555-55-555----------------------------------------|
|--22-222-22-222---55-555-55-555---77-99-1010-1212-14141414141414141414-|
|--22-222-22-222---33-333-33-333---xx-xx-x-x--x-x--xxxxxxxxxxxxxxxxxxxx-|
|--22-222-22-222-------------------55-77-9-9--1010-12121212121212121212-|





Refrain-

Guitar1 2x

|------------10--------/12-10--|------------10--------/12-10----------|
|--8-----8------8--------------|--8------8-----8----------------------|
|-----7-----------7------------|--------------------------------------|
|------------------------------|----10-----------10-------------------|
|------------------------------|--------------------------------------|
|------------------------------|--------------------------------------|



|-----------10----------10-----|-------------------------------|
|---8-----8-----8-----8--------|--88-88-88-88-8-8-8------------|
|------7-----------7-----------|--77-77-77-77-7-7-7------------|
|------------------------------|-------------------------------|
|------------------------------|-------------------------------|
|------------------------------|-------------------------------|



Guitar2


|---------------------------------------------------------------------|
|---------------------------------------------------------------------|
|------------------55-555-55-555-------------------77-777-77-777------|2x
|--22-222-22-222---55-555-55-555---55-555-55-555---77-777-77-777------|
|--22-222-22-222---33-333-33-333---55-555-55-555---55-555-55-555------|
|--22-222-22-222-------------------55-555-55-555----------------------|


Then

Guitar1

|------------------------------------------------|
|------------------------------------------------|
|------------------------------------------------|
|-22-222-222-2-2---------------------------------|
|-22-222-222-2-2---------------------------------|
|-00-000-000-0-0---------------------------------|



Guitar2



|------------------------------------------------|
|------------------------------------------------|
|------------------------------------------------|
|-22-222-555-5-5--/------------------------------|
|-22-222-222-2-2--/------------------------------|
|-22-222-222-2-2--/------------------------------|









Verse-

Guitar1


|---------------------------------------------------------------------|
|---------------------------------------------------------------------|
|------------------55-555-55-555-------------------77-777-77-777------|
|--22-222-22-222---55-555-55-555---55-555-55-555---77-777-77-777------|
|--22-222-22-222---33-333-33-333---55-555-55-555---55-555-55-555------|
|--22-222-22-222-------------------55-555-55-555----------------------|



|-----------------------------------------------------------------------|
|-----------------------------------------------------------------------|
|-------------------5xxxx-5xxxx-5xx-------------------7-7-7-7-7-7-7-xx--|
|--2xxxx-2xxxx-2xx--5xxxx-5xxxx-5xx--5xxxx-5xxxx-5xx--7-7-7-7-7-7-7-xx--|
|--2xxxx-2xxxx-2xx--3xxxx-3xxxx-3xx--5xxxx-5xxxx-5xx--5-5-5-5-5-5-5-xx--|
|--0xxxx-0xxxx-0xx-------------------3xxxx-3xxxx-3xx--------------------|







Guitar2

|---------------------------------------------------------------------|
|---------------------------------------------------------------------|
|----------------------------------44-444-44-444----------------------|
|--66-666-66-666---22-222-22-222---44-444-44-444---44-444-44-444------|
|--66-666-66-666---22-222-22-222---22-222-22-222---44-444-44-444------|
|--66-666-66-666---22-222-22-222-------------------44-444-44-444------|





|----------------------------------------------------------------------------|
|----------------------------------------------------------------------------|
|-----------------------------------------------------7-7-7-7-7-7-7-7-7-7-7--|
|-2xxxx-2xxxx-2xx--10xxxx-10xxxx-10xx-5xxxx-5xxxx-5xx-x-x-x-x-x-x-x-x-x-x-x--|
|-2xxxx-2xxxx-2xx--10xxxx-10xxxx-10xx-5xxxx-5xxxx-5xx-5-5-5-5-5-5-5-5-5-5-5--|
|-2xxxx-2xxxx-2xx--10xxxx-10xxxx-10xx-5xxxx-5xxxx-5xx------------------------|








Repeat Refrain 



Chorus- face down in the dirt...

Guitar1

|--------------------------------------------------------------------------|
|--------------------------------------------------------------------------|
|-121212/111111\12/11\121212/111111\12/11\1212-22-44-55-9-9-9-9-9-9-9-9-9--|
|-xxxxxxxxxxxxxxxxxxxxxxxxxxxxxxxxxxxxxxxxxxxx-xx-xx-xx-x-x-x-x-x-x-x-x-x--|
|-101010/9-9-9-\10/9-\101010/9-9-9-\10/9-\1010-00-22-33-7-7-7-7-7-7-7-7-7--|
|--------------------------------------------------------------------------|

|--------------------------------------------------------------------------|
|--------------------------------------------------------------------------|
|-121212/111111\12/11\121212/111111\12/11\1212-22-44-55-9-9-9-9-9-9-9-9-9--|
|-xxxxxxxxxxxxxxxxxxxxxxxxxxxxxxxxxxxxxxxxxxxx-xx-xx-xx-x-x-x-x-x-x-x-x-x--|
|-101010/9-9-9-\10/9-\101010/9-9-9-\10/9-\1010-00-22-33-7-7-7-7-7-7-7-7-7--|
|--------------------------------------------------------------------------|


Guitar2-

|------------------------------------------------------------|
|------------------------------------------------------------|
|---------------5-5-5-5-5-5-5-5------------------------------|
|-2-2-2-2-2-2-2-5-5-5-5-5-5-5-5-5-5-5-5-5-5-5-5-00-00-00-0-0-|2x
|-2-2-2-2-2-2-2-3-3-3-3-3-3-3-3-5-5-5-5-5-5-5-5-00-00-00-0-0-|
|-2-2-2-2-2-2-2-----------------5-5-5-5-5-5-5-5-00-00-00-0-0-|





Bridge-



Guitar2

|------------------------------------------------------------------|
|------------------------------------------------------------------|
|---------------55555---------------xxxxxxxx-----------------------|
|-22222-xxxxxxx-55555-xxxxxxx-55555-xxxxxxxx-77-99-1111-1313-1414--|
|-22222-xxxxxxx-33333-xxxxxxx-55555-xxxxxxxx-xx-xx-x-x--x-x--x-x---|
|-00000-xxxxxxx-------xxxxxxx-33333----------55-77-9-9--1010-1212--|



Guitar2

|---------------------------------------------------------------|
|---------------------------------------------------------------|
|---------------55555---------------xxxxxxxx--------------------|
|-22222-xxxxxxx-55555-xxxxxxx-55555-xxxxxxxx-000000000000-------|
|-22222-xxxxxxx-33333-xxxxxxx-55555-xxxxxxxx-000000000000-------|
|-22222-xxxxxxx-------xxxxxxx-55555----------000000000000-------|





Repeat Refrain-

Continued



Guitar1

|------------------------------------------------------------|
|------------------------------------------------------------|
|------------------------------------------------------------|
|-44444444-66666666-88888888-1212-1212-1212-1212--1212-------|
|-xxxxxxxx-xxxxxxxx-xxxxxxxx-x-x--x-x--x-x--x-x---x--x-------|2x
|-33333333-55555555-77777777-1010-1010-1010-1010--1010-------|






Guitar2



|------------------------------------------------------------|
|------------------------------------------------------------|
|---------------5-5-5-5-5-5-5-5------------------------------|
|-2-2-2-2-2-2-2-5-5-5-5-5-5-5-5-5-5-5-5-5-5-5-5-00-00-00-0-0-|2x
|-2-2-2-2-2-2-2-3-3-3-3-3-3-3-3-5-5-5-5-5-5-5-5-00-00-00-0-0-|
|-2-2-2-2-2-2-2-----------------5-5-5-5-5-5-5-5-00-00-00-0-0-|





Repeat Chorus- 1x



Then

Guitar1

|------------------------------------------------|
|------------------------------------------------|
|------------------------------------------------|
|-22-222-222-2-2---------------------------------|
|-22-222-222-2-2---------------------------------|
|-00-000-000-0-0---------------------------------|



Guitar2



|------------------------------------------------|
|------------------------------------------------|
|------------------------------------------------|
|-22-222-555-5-5--/------------------------------|end
|-22-222-222-2-2--/------------------------------|
|-22-222-222-2-2--/------------------------------|


Suggest correction
comments
print report bad tab
9 comments total. Showing first comments.
0 reply
doobidoo 5,808 wrote on August 10 2007, 07:35 am

hhmmm,not bad

0 reply
RaZoRb0iz 192 wrote on August 13 2007, 10:07 am

I doubt this is how they played it.

0 reply
supersario 64 wrote on August 16 2007, 05:09 am

this is not the way they play it but it sounds the way they paly it .this includes more complete tab than ver 1 that's all tnx

guest
You may want to rate the tab now too:
select rating
Wanna post a correction for this tab? Suggest correction