Oops, an error
Loading. Please wait.

Face Down Tab

version 3
63,028 views 39 this week
9 commentsread comments
1 2 3 4 5
excellent!
x 23
add to favorites
launch autoscroll
font size
0
reset
how to read this tab
guitar tuner
Tab Pro tools
  • play this tab
  • loop segment
  • change instrument
  • show fretboard
  • metronome
×
Best way to learn
"Face Down"
Autoscroll
slow
fast
+/-
esc
set tempo
stop
Contributor
Difficulty
Tuning
intermediate
C G C F A D
-------------------------------------------------------------------------------
                             Face Down Acoustic-The Red Jumpsuit Apparatus
-------------------------------------------------------------------------------
Tabbed by: me, once again
Email: cjmeserole@yahoo.com

Tuning: DROP C EVERYBODY!  that means CGCFAD.  not standard, no capo, drop C.  
even though the side notes say EADGBE, it's drop C. 
 i'm just too lazy to change them all. 



intro: 

(fast picking)
Gtr 1 

     Am7          Fadd9          C              G
e|-------3--------------3--------------3--------------3------3------3--------|
B|---1------1---1---1------1---1---1------1---1---0------0------0---0--------|
G|-----2------2-------2------2-------0------0-------0------0------0-0--------|
D|-2--------------3-------------------------------------------------0--------|
A|-------------------------------3--------------2-------------------2--------|
E|---------------------------------------------------------------------------|


Verse:

Gtr. 1   (sorry, I'm too lazy to write out the strum pattern)
e|--3------3------3------3---------------------------------------|
B|--1------1------1------0---------------------------------------|
G|--2-x8---2-x8---0-x8---0-x8------------------------------------|
D|--2------3------2------0---------------------------------------|
A|--0-------------3------2---------------------------------------|
E|---------------------------------------------------------------|

Gtr. 2 
e|---------------------------------------------------------------|
B|---------------------------------------------------------------|
G|----------------5----------------------------------------------|
D|--7------3------5-x8---5---------------------------------------|
A|--7-x8---3-x8---3------5-x8------------------------------------|
E|--7------3-------------5---------------------------------------|

2nd phrase, 1st Verse:

Gtr. 1
e|--3------3------3----------------------------------------------------------|
B|--1------1------1----------------------------------------------------------|
G|--2-x8---2-x8---0-x8--5555/7777/9999/10101010/12---------------------------|
D|--2------3------2-----xxxx/xxxx/xxxx/x-x-x-x-/x--x16-----------------------|
A|--0-------------3-----3333/5555/7777/8-8-8-8-/10---------------------------|
E|---------------------------------------------------------------------------|

Gtr. 2 plays the same thing. 


Chorus:

Gtr. 1
e|--------------------------------------------------------------------------|
B|--------------------------------------------------------------------------|
G|--------------5-----------------------------------------------------------|
D|--7-----3-----5-x8--5----------- x2 --------------------------------------|
A|--7-x8--3-x8--3-----5-x8--------------------------------------------------|
E|--7-----3-----------5-----------------------------------------------------|

Gtr. 2
e|-----------15----------15----------15---------15----------15----------15-15----15----|
B|--13----13----13----13----13----13----13---13----13----13----13----13----13-x4-12-x6-|
G|-----12----------12----------12---------12----------12----------12-------12----12----| x2
D|-------------------------------------------------------------------------------------|
A|-------------------------------------------------------------------------------------|
E|-------------------------------------------------------------------------------------|

Post Chorus:

e|---------------------------------------------------------------------------|
B|---------------------------------------------------------------------------|
G|---------------------------------------------------------------------------|
D|--77--799--91010--1010/----------------------------------------------------|
A|--77--777--77-7---7-7/-(slide down fretboard w/fretting hand)--------------|
E|--77--777--77-7---7-7/-----------------------------------------------------|


Verse 2:

first phrase is the exact same, second phrase is:

Gtr. 1
e|--3-xxxx-3-xxxx-3-xx-3-xxxx-3-xxxx-3-xx-3-xxxx-3-xxxx-3-xx-3-----------|
B|--1-xxxx-1-xxxx-1-xx-1-xxxx-1-xxxx-1-xx-1-xxxx-1-xxxx-1-xx-0-----------|
G|--2-xxxx-2-xxxx-2-xx-2-xxxx-2-xxxx-2-xx-0-xxxx-0-xxxx-0-xx-0-x16-------|
D|--2-xxxx-2-xxxx-2-xx-3-xxxx-3-xxxx-3-xx-2-xxxx-2-xxxx-2-xx-0-----------|
A|--0-xxxx-0-xxxx-0-xx---xxxx---xxxx---xx-3-xxxx-3-xxxx-3-xx-2-----------|
E|----xxxx---xxxx---xx---xxxx---xxxx---xx---xxxx---xxxx---xx-------------|

Gtr. 2

e|---------------------------------------------------------------------|
B|---------------------------------------------------------------------|
G|--4-XXXX-5-XXXX-4-XX-4-XXXX-5-XXXX-4/5\4---5-XXXX-7-XXXX-9-XX-12-----|
D|--x-XXXX-x-XXXX-x-XX-x-XXXX-x-XXXX-x-------x-XXXX-x-XXXX-x-XX-x-x16--|
A|--2-XXXX-3-XXXX-2-XX-2-XXXX-3-XXXX-2/3\2---3-XXXX-5-XXXX-7-XX-10-----|
E|---------------------------------------------------------------------|


Repeat Chorus.

Bridge:

Gtr. 1
e|--------------------------------------------------------------------------|
B|--------------------------------------------------------------------------|
G|--------------5-----------------------------------------------------------|
D|--7-----3-----5-x8--5----------- x2 --------------------------------------|
A|--7-x8--3-x8--3-----5-x8--------------------------------------------------|
E|--7-----3-----------5-----------------------------------------------------|

Gtr. 2
E|----------------------------------------------------------|
B|----------------------------------------------------------|
G|--101010-999999-101010-99999--55/77/99/1010/121212-999----|
D|--x-x-x--xxxxxx-x-x-x--xxxxx--xx-xx-xx-x-x-x-x-x---xxx----|
A|--8-8-8--777777-8-8-8--77777--33/55/77/8-8-/101010-777----|
E|----------------------------------------------------------|

Gtr. 2 (second phrase)
e|-----------------------------------1010/1212/1313/1515-1515-1515-1515-15-15-|
B|-131313-121212-131313-121212--1313-x-x--x-x--x-x--x-x--x-x--x-x--x-x--x--x--|
G|-x-x-x--x-x-x--x-x-x--x-x-x---x-x--7-7-/9-9/1010/1212-1212-1212-1212-12-12--|
D|-101010-9-9-9--101010-9-9-9---1010------------------------------------------|
A|----------------------------------------------------------------------------|
E|----------------------------------------------------------------------------|


"One day she will tell you..."
Both Gtrs.
e|--------xxxxxx-------xxxxxx-------xxxxxx-----------|
B|--------xxxxxx-------xxxxxx-------xxxxxx-----------|
G|--------xxxxxx-------xxxxxx-55555-xxxxxx-----------|
D|--77777-xxxxxx-33333-xxxxxx-55555-xxxxxx-----------|
A|--77777-xxxxxx-33333-xxxxxx-33333-xxxxxx-----------|
E|--77777-xxxxxx-33333-xxxxxx-------xxxxxx-----------|

(they split into 2 parts here)
Gtr. 1
e|-----------------------------|
B|-----------------------------|
G|-555/777/999/101010/121212---|
D|-xxx/xxx/xxx/x-x-x-/x-x-x----|
A|-333/555/777/8-8-8-/101010---|
E|-----------------------------|

Gtr. 2
e|-------|
B|-------|
G|-------|
D|-5-----|
A|-5-x16-|
E|-5-----|


Chorus again.

Chorus/Interlude/Thingymabob

Gtr. 1
e|--------------------------------------------------------------------------|
B|--------------------------------------------------------------------------|
G|--------------5-----------------------------------------------------------|
D|--7-----3-----5-x8--5----------- x3 --------------------------------------|
A|--7-x8--3-x8--3-----5-x8--------------------------------------------------|
E|--7-----3-----------5-----------------------------------------------------|

Gtr. 2 (strum each x16 [yes, i know, i am lazy])
e|-----10-12-1515-1515-1515-1515-15-15-------|
B|-13--x--x---x-x--x-x--x-x--x-x--x--x-------|
G|-x---7--9--1212-1212-1212-1212-12-12-------|
D|-10----------------------------------------| x2
A|-------------------------------------------|
E|-------------------------------------------|

Gtr. 2
e|-----------------------------------1010/1212/1313/1515-1515-1515-1515-15-15-|
B|-131313-121212-131313-121212--1313-x-x--x-x--x-x--x-x--x-x--x-x--x-x--x--x--|
G|-x-x-x--x-x-x--x-x-x--x-x-x---x-x--7-7-/9-9/1010/1212-1212-1212-1212-12-12--|
D|-101010-9-9-9--101010-9-9-9---1010------------------------------------------|
A|----------------------------------------------------------------------------|
E|----------------------------------------------------------------------------|


both end on:
e|--------------------------|
B|--------------------------|
G|--------------------------|
D|--77--799--91010--1010/---|
A|--77--777--77-7---7-7/----|
E|--77--777--77-7---7-7/----|

and that's it!  any questions, comments, corrections, message or comment me!


| /  slide up
| \  slide down
| h  hammer-on
| p  pull-off
| ~  vibrato
| +  harmonic
| x  Mute note
===============================================================================
comments
print report bad tab
9 comments total. Showing first comments.
0 reply
=(Cody=) wrote on November 9 2009, 11:18 pm

just so everyone knows, the song is supposed to be in drop C, not C standard like it says at the top. i accidentally chose the wrong tuning when i submitted the tab...oops...

0 reply
snakeinthebox wrote on July 19 2010, 02:54 pm

Great tab 4* because of the rick roll, why not try to put a usefull link in next time. kthnxbye

0 reply
=(Cody=) wrote on July 20 2010, 07:23 pm

yeah, sorry about that :)
i'll have to take that off asap, i had an immature inkling once and keep forgetting to fix it.
but thanks for checking out my tab :)

I want to post or [tab]
guest
You may want to rate the tab now too:
select rating
Please do not post tabs as comments. Select "correction" instead!