Oops, an error
Loading. Please wait.

Face Down Tab

version 2
40,846 views 6 this week
2 commentsread comments
1 2 3 4 5
x 3
add to favorites
launch autoscroll
font size
0
reset
how to read this tab
guitar tuner
Autoscroll
slow
fast
+/-
esc
set tempo
stop
Help us to improve Ultimate-Guitar.com Take our survey!
×
Author
-------------------------------------------------------------------------------
			     FACE DOWN - The red jumpsuit apparatus
-------------------------------------------------------------------------------
Tabbed by:emorocker911

Tuning:standard

       this is my first tab, i hope you like it!
INTRO:
e|--------------------------------------------------------|
B|--------------------------------------------------------|
G|--------------------------------------------------------|
D|---7--------3------10-----5----//////////////////////---|
A|---7--------3------10-----3----//////////////////////---|
E|---5--------1-------8-----3----////////////pick slide---|


VERSE 1:
e|--------------------------------------------------------|
B|--------------------------------------------------------|
G|--------------------------------------------------------|
D|------7-7-7-7-7-7-7-7-7-7-7-7-7-7-----------------------|
A|------7-7-7-7-7-7-7-7-7-7-7-7-7-7-----------------------|
E|------5-5-5-5-5-5-5-5-5-5-5-5-5-5-----------------------|
        Hey girl, you know you drive me crazy.


e|--------------------------------------------------------|
B|--------------------------------------------------------|
G|--------------------------------------------------------|
D|------3-3-3-3-3-3-3-3-3-3-3-3-3-3-----------------------|
A|------3-3-3-3-3-3-3-3-3-3-3-3-3-3-----------------------|
E|------1-1-1-1-1-1-1-1-1-1-1-1-1-1-----------------------|
        One look puts the rhythm in my head.


e|--------------------------------------------------------|
B|--------------------------------------------------------|
G|--------------------------------------------------------|
D|------3-3-3-3-3-3-3-5-5-5-------5-----------------------|
A|------3-3-3-3-3-3-3-5-5-5-7-7-7-5-----------------------|
E|------3-3-3-3-3-3-3-3-3-3-8-8-8-3-----------------------|
        Still I'll never understand why you hang around.


e|-----------------------------------------------3--------|
B|---------------------------------------------------3----|
G|--------------------------------------------------------|
D|------5-5-5-5-5-5-5-5-5-5-5-----------------------------|
A|------5-5-5-5-5-5-5-5-5-5-5-----------------------------|
E|------3-3-3-3-3-3-3-3-3-3-3-----------------------------|
        I see what's going down.

e|--------------------------------------------------------|
B|--------------------------------------------------------|
G|--------------------------------------------------------|
D|------7-7-7-7-7-7-7-7-7-7-7-7-7-7-----------------------|
A|------7-7-7-7-7-7-7-7-7-7-7-7-7-7-----------------------|
E|------5-5-5-5-5-5-5-5-5-5-5-5-5-5-----------------------|
        Cover up with makeup in the mirror. 

e|--------------------------------------------------------|
B|--------------------------------------------------------|
G|--------------------------------------------------------|
D|------3-3-3-3-3-3-3-3-3-3-3-3-3-3-----------------------|
A|------3-3-3-3-3-3-3-3-3-3-3-3-3-3-----------------------|
E|------1-1-1-1-1-1-1-1-1-1-1-1-1-1-----------------------|
        Tell yourself it's never gonna happen again.


e|--------------------------------------------------------|
B|--------------------------------------------------------|
G|--------------------------------------------------------|
D|------3-3-3-3-3-3-3-5-5-5-------5-5-5-5-5---------------|
A|------3-3-3-3-3-3-3-5-5-5-7-7-7-5-5-5-5-5---------------|
E|------3-3-3-3-3-3-3-3-3-3-8-8-8-3-3-3-3-3---------------|
        You cry alone and then he swears he loves you




CHORUS:
e|--------------------------------------------------------|
B|--------------------------------------------------------|
G|--------------------------------------------------------|
D|------7-7-7-7-7-7-7-7-7-7-7-7-7-7-----------------------|
A|------7-7-7-7-7-7-7-7-7-7-7-7-7-7-----------------------|
E|------5-5-5-5-5-5-5-5-5-5-5-5-5-5-----------------------|
        Do you feel like a man,


e|--------------------------------------------------------|
B|--------------------------------------------------------|
G|--------------------------------------------------------|
D|------3-3-3-3-3-3-3-3-3-3-3-3-3-3-----------------------|
A|------3-3-3-3-3-3-3-3-3-3-3-3-3-3-----------------------|
E|------1-1-1-1-1-1-1-1-1-1-1-1-1-1-----------------------|
       When you push her around,


e|--------------------------------------------------------|
B|--------------------------------------------------------|
G|--------------------------------------------------------|
D|------3-3-3-3-3-3-3-5-5-5-------5-----------------------|
A|------3-3-3-3-3-3-3-5-5-5-7-7-7-5-----------------------|
E|------3-3-3-3-3-3-3-3-3-3-8-8-8-3-----------------------|
        Do you feel better now


e|--------------------------------------------------------|
B|--------------------------------------------------------|
G|--------------------------------------------------------|
D|------5-5-5-5-5-5-5-5-5-5-5-----------------------------|
A|------5-5-5-5-5-5-5-5-5-5-5-----------------------------|
E|------3-3-3-3-3-3-3-3-3-3-3-----------------------------|
        She falls to the ground.


e|--------------------------------------------------------|
B|--------------------------------------------------------|
G|--------------------------------------------------------|
D|------7-7-7-7-7-7-7-7-7-7-7-7-7-7-----------------------|
A|------7-7-7-7-7-7-7-7-7-7-7-7-7-7-----------------------|
E|------5-5-5-5-5-5-5-5-5-5-5-5-5-5-----------------------|
        Well, I'll tell you my friend


e|--------------------------------------------------------|
B|--------------------------------------------------------|
G|--------------------------------------------------------|
D|------3-3-3-3-3-3-3-3-3-3-3-3-3-3-----------------------|
A|------3-3-3-3-3-3-3-3-3-3-3-3-3-3-----------------------|
E|------1-1-1-1-1-1-1-1-1-1-1-1-1-1-----------------------|
        One day this world's going to end



e|--------------------------------------------------------|
B|--------------------------------------------------------|
G|--------------------------------------------------------|
D|-----10-10-10-10-10-10-10-10-10-10-10-10-10-------------|
A|-----10-10-10-10-10-10-10-10-10-10-10-10-10-------------|
E|------8--8--8--8--8--8--8--8--8--8--8--8--8-------------|
       As your lies crumble down


e|--------------------------------------------------------|
B|--------------------------------------------------------|
G|--------------------------------------------------------|
D|------5-5-5-5-5-5-5-5-5-5-5--7-7-7-7-7------------------|
A|------5-5-5-5-5-5-5-5-5-5-5--7-7-7-7-7------------------|
E|------3-3-3-3-3-3-3-3-3-3-5--5-5-5-5-5------------------|
        A new life she has found




Verse 2:
e|--------------------------------------------------------|
B|--------------------------------------------------------|
G|--------------------------------------------------------|
D|------7-7-7-7-7-7-7-7-7-7-7-7-7-7-----------------------|
A|------7-7-7-7-7-7-7-7-7-7-7-7-7-7-----------------------|
E|------5-5-5-5-5-5-5-5-5-5-5-5-5-5-----------------------|
        A pebble in the water makes a ripple effect



e|--------------------------------------------------------|
B|--------------------------------------------------------|
G|--------------------------------------------------------|
D|------3-3-3-3-3-3-3-3-3-3-3-3-3-3-----------------------|
A|------3-3-3-3-3-3-3-3-3-3-3-3-3-3-----------------------|
E|------1-1-1-1-1-1-1-1-1-1-1-1-1-1-----------------------|
        Every action in this world will bear a consequence.



e|--------------------------------------------------------|
B|--------------------------------------------------------|
G|--------------------------------------------------------|
D|------3-3-3-3-3-3-3-5-5-5-------5-----------------------|
A|------3-3-3-3-3-3-3-5-5-5-7-7-7-5-----------------------|
E|------3-3-3-3-3-3-3-3-3-3-8-8-8-3-----------------------|
        If you wait around forever you will surely drown.


e|--------------------------------------------------------|
B|--------------------------------------------------------|
G|--------------------------------------------------------|
D|------5-5-5-5-5-5-5-5-5-5-5-----------------------------|
A|------5-5-5-5-5-5-5-5-5-5-5-----------------------------|
E|------3-3-3-3-3-3-3-3-3-3-3-----------------------------|
        I see what's going down.


e|--------------------------------------------------------|
B|--------------------------------------------------------|
G|--------------------------------------------------------|
D|------7-7-7-7-7-7-7-7-7-7-7-7-7-7-----------------------|
A|------7-7-7-7-7-7-7-7-7-7-7-7-7-7-----------------------|
E|------5-5-5-5-5-5-5-5-5-5-5-5-5-5-----------------------|
        I see the way you go and,



e|--------------------------------------------------------|
B|--------------------------------------------------------|
G|--------------------------------------------------------|
D|------3-3-3-3-3-3-3-3-3-3-3-3-3-3-----------------------|
A|------3-3-3-3-3-3-3-3-3-3-3-3-3-3-----------------------|
E|------1-1-1-1-1-1-1-1-1-1-1-1-1-1-----------------------|
        Say you're right again,



e|--------------------------------------------------------|
B|--------------------------------------------------------|
G|--------------------------------------------------------|
D|------3-3-3-3-3-3-3-5-5-5-------5-----------------------|
A|------3-3-3-3-3-3-3-5-5-5-7-7-7-5-----------------------|
E|------3-3-3-3-3-3-3-3-3-3-8-8-8-3-----------------------|
        Say you're right again,



e|--------------------------------------------------------|
B|--------------------------------------------------------|
G|--------------------------------------------------------|
D|------5-5-5-5-5-5-5-5-5-5-5-----------------------------|
A|------5-5-5-5-5-5-5-5-5-5-5-----------------------------|
E|------3-3-3-3-3-3-3-3-3-3-3-----------------------------|
        Heed my lecture.

(CHORUS)



(same pattern as verse 1)

Face down in the dirt she said, this doesn't hurt she said I finally had
	
enough!(2x)




e|--------------------------------------------------------|
B|--------------------------------------------------------|
G|--------------------------------------------------------|
D|------7-7-7-7-7-7-7-7-7-7-7-7-7-7-----------------------|
A|------7-7-7-7-7-7-7-7-7-7-7-7-7-7-----------------------|
E|------5-5-5-5-5-5-5-5-5-5-5-5-5-5-----------------------|
        One day she will tell



e|--------------------------------------------------------|
B|--------------------------------------------------------|
G|--------------------------------------------------------|
D|------3-3-3-3-3-3-3-3-3-3-3-3-3-3-----------------------|
A|------3-3-3-3-3-3-3-3-3-3-3-3-3-3-----------------------|
E|------1-1-1-1-1-1-1-1-1-1-1-1-1-1-----------------------|
        you that she has had 




e|--------------------------------------------------------|
B|--------------------------------------------------------|
G|--------------------------------------------------------|
D|-----10-10-10-10-10-10-10-10-10-10-10-10-10-------------|
A|-----10-10-10-10-10-10-10-10-10-10-10-10-10-------------|
E|------8--8--8--8--8--8--8--8--8--8--8--8--8-------------|
        enough!!!!!!!!



e|--------------------------------------------------------|
B|--------------------------------------------------------|
G|--------------------------------------------------------|
D|------5-5-5-5-5-5-5-5-5-5-5-----------------------------|
A|------5-5-5-5-5-5-5-5-5-5-5-----------------------------|
E|------3-3-3-3-3-3-3-3-3-3-3-----------------------------|
        It's coming round again!!!!!




(chorus)






(same pattern as verse 1)

Face down in the dirt she said, this doesn't hurt she said I finally had
	
enough!(2x)







| /  slide up
| \  slide down
| h  hammer-on
| p  pull-off
| ~  vibrato
| +  harmonic
| x  Mute note



===============================================================================
Suggest correction
Give kudos to tab author, rate the tab!
1 2 3 4 5
comments
print report bad tab
2 comments total.
0 reply
spencer Cr 507 Dec 20, 2006 03:42 PM

dude you have the tuning all wrong it's in drop C, (or if you want you can play it in drop D). you missed the entire lead section, and you forgot the palm muting. sorry loom at version 2 or 4 for teh exact tab those are 80-100% i mean it.

0 reply
HH_Emo_666 242 Dec 20, 2006 06:51 PM

yea .. this song isnt in standard .. and if they did/was ur tab was wrong

guest
You may want to rate the tab now too:
select rating
Wanna post a correction for this tab? Suggest correction