Oops, an error
Loading. Please wait.

Face Down Tab

version 3
173,163 views 138 this week
39 commentsread comments
1 2 3 4 5
excellent!
x 60
add to favorites
launch autoscroll
font size
0
reset
how to read this tab
guitar tuner
Tab Pro tools
  • play this tab
  • loop segment
  • change instrument
  • show fretboard
  • metronome
×
Best way to learn
"Face Down"
Autoscroll
slow
fast
+/-
esc
set tempo
stop
Contributor
Tuning
C G C F A D
Face Down-
Red Jumpsuit Apparatus-
Dont You Fake It

tuning- DROP C

very easy and even funner!
sorry if its long, i tabbed out there parts by themselves,
not mixed together-

~~*UPDATED*~~

I have redone the names next to the strings.

Guitar 1  -Elias Reidy-
Intro:
D|-3~--3~--3~--3~----------------------------------|
A|-1~--1~--1~--0~----------------------------------|
F|-2~--2~--0~--0~----------------------------------|
C|-2~--3~--2~--0~-----------------/////////////////|
G|-0~--0~--3~--2~-----------------/////pick slide//|
C|--------------------------------/////////////////|


Verse pt. 1:
D|-------------------------------------------------------------|
A|----------------------------------5-5------------------------|
F|----------------------------------5-5---55555555\7-77--5-55--|
C|--7-777777777777777--3-3333333333--3-3--55555555\X-XX--X-XX--|
G|--7-777777777777777--3-3333333333--3-3--33333333\5-55--3-33--|
C|--7-777777777777777--3-3333333333--3-3-----------------------|
      ...............    ..........  . .   ......    ..    ..
D|-------------------|
A|-------------------|
F|--------------<5>--|
C|--5-55555555-------|
G|--5-55555555-------|
C|--5-55555555-------|
      ........


Verse pt. 2:
D|--------------------------------------------------------------|
A|---------------------------------5-5--------------------------|
F|---------------------------------5-5---5-5/5--7/9--9/10-10/12-|
C|--7-777777777777777--3-3333333333-3-3--5-x-x--x-x--x-x--x-x---|
G|--7-777777777777777--3-3333333333-3-3--3-3/5--5/7--7/8--8/10--|
C|--7-777777777777777--3-3333333333-3-3-------------------------|
      ...............    ..........
D|------------------------------------|
A|------------------------------------|
F|--12121212121212121212121212121212--|
C|--x-x-x-x-x-x-x-x-x-x-x-x-x-x-x-x---|
G|--10101010101010101010101010101010--|
C|------------------------------------|

Chorus (x2)

D|--------------------------------------------------------|
A|--------------------------------------------------------|
F|--------------------------------------5555555555555555--|
C|--7777777777777777--3333333333333333--5555555555555555--|
G|--7777777777777777--3333333333333333--3333333333333333--|
C|--7777777777777777--3333333333333333--------------------|

D|-------------------|
A|-------------------|
F|-------------------|
C|--55-55-55-55-5-5--|
G|--55-55-55-55-5-5--|
C|--55-55-55-55-5-5--|

Pre-Verse:
D|----------------|
A|----------------|
F|----------------|
C|-77-777-777-77--|
G|-77-777-777-77--|
C|-77-777-777-77--|

Verse pt. 3:
D|-------------------------------------------------------------|
A|----------------------------------5-5------------------------|
F|----------------------------------5-5---55555555\7-77--5-55--|
C|--7-777777777777777--3-3333333333--3-3--55555555\X-XX--X-XX--|
G|--7-777777777777777--3-3333333333--3-3--33333333\5-55--3-33--|
C|--7-777777777777777--3-3333333333--3-3-----------------------|
      ...............    ..........  . .   ......    ..    ..
D|---------------------|
A|---------------------|
F|--------------<5>----|
C|--5-55555555-----<5>-|
G|--5-55555555---------|
C|--5-55555555---------|
      ........

verse pt. 4:
D|----------------------------------------------------------------|
A|----------------------------------------------------------------|
F|--------------------------------------------5-5555-5-5555-5-55--|
C|--7-7777-7-7777-7-77---3-3333-3-3333-3-33---5-5555-5-5555-5-55--|
G|--7-7777-7-7777-7-77---3-3333-3-3333-3-33---3-3333-3-3333-3-33--|
C|--7-7777-7-7777-7-77---3-3333-3-3333-3-33-----------------------|
      ....   ....   ..     ....   ....   ..     ....   ....   ..

D|----------------------------------|
A|----------------------------------|
F|-/12121212121212121212121212\-----|
C|--x-x-x-x-x-x-x-x-x-x-x-x-x-------|
G|-/10101010101010101010101010\-----|
C|----------------------------------|


Chorus (x2)


Bridge pt. 1:
D|--------------------------------------|
A|--------------------------------------|
F|--------------------55555555----------|
C|--77777777-33333333-55555555-55555555-|
G|--77777777-33333333-33333333-55555555-|
C|--77777777-33333333----------55555555-|

Bridge pt. 2:
D|----------------------------------------------|
A|----------------------------------------------|
F|--------------------55555555------------------|
C|--77777777-33333333-55555555-55-55-55-55-5-5--|
G|--77777777-33333333-33333333-55-55-55-55-5-5--|
C|--77777777-33333333----------55-55-55-55-5-5--|

Interlude:
D|---------------------------|
A|---------------------------|
F|--------------------55555--|
C|--77777----33333----55555--|
G|--77777----33333----33333--|
C|--77777----33333-----------|

|--0--|
|--0--|
|--0--|  this is played by the tuning pegs
|--0--|   on the low C string
|--0--|
|--0--|

D|-----------------------------|
A|-----------------------------|
F|--555/777/999/101010/121212--|
C|--xxx-xxx-xxx-x-x-x--x-x-x---|
G|--333/555/777/8-8-8-/101010--|
C|-----------------------------|

Chorus (x2)

Ending pt. 1:  (x2)
D|------------------------------------------------------|
A|--1313131313131313-1515151515151515-1717171717171717--|
F|--x-x-x-x-x-x-x-x--x-x-x-x-x-x-x-x--x-x-x-x-x-x-x-x---|
C|--1010101010101010-1212121212121212-1414141414141414--|
G|------------------------------------------------------|
C|------------------------------------------------------|

D|-----------------------------|
A|--20202020202020202020-------|
F|--x-x-x-x-x-x-x-x-x-x--------|
C|--17171717171717171717-------|
G|-----------------------------|
C|-----------------------------|

Ending pt. 2:
D|--------------------------------------------------------|
A|--------------------------------------------------------|
F|--------------------------------------5555555555555555--|
C|--7777777777777777--3333333333333333--5555555555555555--|
G|--7777777777777777--3333333333333333--3333333333333333--|
C|--7777777777777777--3333333333333333--------------------|

D|-------------------|
A|-------------------|
F|-------------------|
C|--55-55-55-55-5-5--|
G|--55-55-55-55-5-5--|
C|--55-55-55-55-5-5--|


End:
D|-----------------|
A|-----------------|
F|-----------------|
C|-77-777-777-77/--|
G|-77-777-777-77/--|
C|-77-777-777-77/--|


----------------------------------------------------------------------------

Guitar 2  -Duke Kitchens-

tuning- DROP C

Intro:
D|-------------------------------------------------|
A|-------------------------------------------------|
F|-----------------REST----------------------------|
C|-------------------------------------------------|
G|-------------------------------------------------|
C|-------------------------------------------------|


Verse pt. 1:
D|-------------------------------------------------------|
A|-------------------------------------------------------|
F|---------------------------------------5-555555555555--|
C|--7-777777777777777--3-33333333333333--5-555555555555--|
G|--7-777777777777777--3-33333333333333--3-333333333333--|
C|--7-777777777777777--3-33333333333333------------------|
      ...............    ..............    ............
D|-------------------|
A|-------------------|
F|-------------------|
C|--5-55555555---<5>-|
G|--5-55555555-------|
C|--5-55555555-------|
      ........


Verse pt. 2:
D|-------------------------------------------------------|
A|-------------------------------------------------------|
F|---------------------------------------5-555555555555--|
C|--7-777777777777777--3-33333333333333--5-555555555555--|
G|--7-777777777777777--3-33333333333333--3-333333333333--|
C|--7-777777777777777--3-33333333333333------------------|
      ...............    ..............    ............
D|-------------------|
A|-------------------|
F|-------------------|
C|--5-55555555-------|
G|--5-55555555-------|
C|--5-55555555-------|

Chorus: (x2)

D|------------15--------/17-15-----------15------/17-15---|
A|--13-----13----13-------------13----13----13------------|
F|-----12-----------12-------------10----------10---------|
C|--------------------------------------------------------|
G|--------------------------------------------------------|
C|--------------------------------------------------------|

D|-----------15----------15--|--1515-1515-1515-1515-15-15--|
A|--13----13----13----13-----|--1313-1313-1212-1212-12-12--|
F|-----12----------12--------|--1212-1212-1212-1212-12-12--|
C|---------------------------|-----------------------------|
G|---------------------------|-----------------------------|
C|---------------------------|-----------------------------|


Pre-Verse:
D|----------------|
A|----------------|
F|----------------|
C|-77-777-777-77--|
G|-77-777-777-77--|
C|-77-777-777-77--|


Verse pt. 3:
D|-------------------------------------------------------|
A|-------------------------------------------------------|
F|---------------------------------------5-555555555555--|
C|--7-777777777777777--3-33333333333333--5-555555555555--|
G|--7-777777777777777--3-33333333333333--3-333333333333--|
C|--7-777777777777777--3-33333333333333------------------|
      ...............    ..............    ............
D|----------------------|
A|----------------------|
F|----------------------|
C|--5-55555555---<5>----|
G|--5-55555555------<5>-|
C|--5-55555555----------|
      ........
Verse pt. 4:
D|--------------------------------------------------------------|
A|--------------------------------------------------------------|
F|--4-XXXX-5-XXXX-4-XX-4-XXXX-5-XXXX-4/5\4---5-XXXX-7-XXXX-5-XX-|
C|--x-XXXX-x-XXXX-x-XX-x-XXXX-x-XXXX-x-------x-XXXX-x-XXXX-x-XX-|
G|--2-XXXX-3-XXXX-2-XX-2-XXXX-3-XXXX-2/3\2---3-XXXX-3-XXXX-3-XX-|
C|--------------------------------------------------------------|

D|--------------------|
A|--------------------|
F|--------------------|
C|--5-5-5-5-5-5-5-5---|
G|--5-5-5-5-5-5-5-5---|
C|--5-5-5-5-5-5-5-5---|


Chorus (x2)

Bridge pt. 1:
D|----------------------------------------------------------|
A|----------------------------------------------------------|
F|--101010-999999-101010-99999--55/77/99/1010/121212-999----|
C|--x-x-x--xxxxxx-x-x-x--xxxxx--xx-xx-xx-x-x-x-x-x---xxx----|
G|--8-8-8--777777-8-8-8--77777--33/55/77/8-8-/101010-777----|
C|----------------------------------------------------------|


Bridge pt. 2:
D|-------------------------------------------------------|
A|--131313-12121212-131313-12121212-1313/1515/1717/1818--|
F|--x-x-x--x-x-x-x--x-x-x--x-x-x-x--x-x--x-x--x-x--x-x---|
C|--101010-9-9-9-9--101010-9-9-9-9--1010/1212/1414/1515--|
G|-------------------------------------------------------|
C|-------------------------------------------------------|

D|-----------------------------|
A|--2020-2020-2020-2020-20-20--|
F|--x-x--x-x--x-x--x-x--x--x---|
C|--1717-1717-1717-1717-17-17--|
G|-----------------------------|
C|-----------------------------|


Interlude:
D|---------------------------|
A|---------------------------|
F|--------------------55555--|
C|--77777----33333----55555--|
G|--77777----33333----33333--|
C|--77777----33333-----------|

D|----------------------|
A|----------------------|
F|----------------------|
C|--555555555555555555--|
G|--755555555555555555--|
C|--555555555555555555--|

Chorus (x2)

Ending pt. 1:  (x2)
D|--------------------------------------------------------|
A|--------------------------------------------------------|
F|--------------------------------------5555555555555555--|
C|--7777777777777777--3333333333333333--5555555555555555--|
G|--7777777777777777--3333333333333333--3333333333333333--|
C|--7777777777777777--3333333333333333--------------------|

D|-------------------|
A|-------------------|
F|-------------------|
C|--55-55-55-55-5-5--|
G|--55-55-55-55-5-5--|
C|--55-55-55-55-5-5--|

Ending pt. 2:
D|---------------------------------------------------|
A|--131313-121212-131313-121212-1313/1515/1717/1818--|
F|--x-x-x--x-x-x--x-x-x--x-x-x--x-x--x-x--x-x--x-x---|
C|--101010-9-9-9--101010-9-9-9--1010/1212/1414/1515--|
G|---------------------------------------------------|
C|---------------------------------------------------|

D|-----------------------------|
A|--2020-2020-2020-2020-20-20--|
F|--x-x--x-x--x-x--x-x--x--x---|
C|--1717-1717-1717-1717-17-17--|
G|-----------------------------|
C|-----------------------------|


End:
D|-----------------|
A|-----------------|
F|-----------------|
C|-77-777-777-77/--|
G|-77-777-777-77/--|
C|-77-777-777-77/--|


THE END!!!!


.- palm mute
/- slide up
\- slide down
x or X- mute or rake sting

peace-
mikko
mikko_9119
E-mail the_silver_bed_head@hotmail.com for any questions, requests anything… and I’ll 
to do my best
comments
print report bad tab
39 comments total. Showing first comments. show 1 bad comment
+3 reply
To The End wrote on July 12 2007, 05:41 am

very good, the intro is much better than the ones on other tabs

0 reply
xionz802 wrote on July 28 2007, 07:40 am

intro is the only1 hus different..rest sounds just d same...

I want to post or [tab]
guest
You may want to rate the tab now too:
select rating
Please do not post tabs as comments. Select "correction" instead!