Oops, an error
Loading. Please wait.

Face Down Tab

version 5
52,457 views 3 this week
16 commentsread comments
1 2 3 4 5
excellent!
x 19
add to favorites
launch autoscroll
font size
0
reset
how to read this tab
guitar tuner
Tab Pro tools
  • play this tab
  • loop segment
  • change instrument
  • show fretboard
  • metronome
×
Best way to learn
"Face Down"
Autoscroll
slow
fast
+/-
esc
set tempo
stop
Contributor
Difficulty
intermediate
Face Down (original) NOT THE MOSUC VIDEO.
The Red Jumpsuit Apparatus

TABbED BY Tim Curran w/help of John Wayne "DUKE" Kitchens.

Tuning - CGCFAD

* - harmonic
s - Slide
pm - paLm mute

intro

Duke

D|--------------|
A|--------------|
F|--------------|
C|-7~-3~-10~-5~-|
G|-7~-3~-10~-5~-|
C|-7~-3~-10~-5~-|PICK SLIDE

D|---------------------------------------------------------------------------|
A|---------------------------------------------------------------------------|
F|---------------------------------------------------------------------------|
C|--7-777777777777777-3-3333333333333333-10-10101010101010101010101010101010-|
G|--7-777777777777777-3-3333333333333333-10-10101010101010101010101010101010-|
C|--7-777777777777777-3-3333333333333333-10-10101010101010101010101010101010-|
    O  PM             O PM-------------- O  PM-------------------------------|

D|-------------------------|
A|----------------------*5-|
F|-------------------------|
C|-5-5555555555555555------|
G|-5-5555555555555555------|
C|-5-5555555555555555------|
   O PM--------------------|

D|---------------------------------------------------------------------------|
A|---------------------------------------------------------------------------|
F|---------------------------------------------------------------------------|
C|--7-777777777777777-3-3333333333333333-10-10101010101010101010101010101010-|
G|--7-777777777777777-3-3333333333333333-10-10101010101010101010101010101010-|
C|--7-777777777777777-3-3333333333333333-10-10101010101010101010101010101010-|
    O  PM             O PM-------------- O  PM-------------------------------|

D|--------------------------------|
A|--------------------------------|
F|--------------------------------|
C|-5-5555555555555555--5555555555-|
G|-5-5555555555555555--5555555555-|
C|-5-5555555555555555--5555555555-|
   O PM---------------------------|


cHORUS DUKE
D|---------15------15s17s15-|
A|--13--13----13------------|
F|----12--------12----------|
C|--------------------------|
G|--------------------------|
C|--------------------------|x2

D|---------15-------15-------------------------|
A|--13--13----13--13---------------------------|
F|----12--------12-----------------------------|
C|-----------------------------55-55-55-55-5-5-|
G|-----------------------------55-55-55-55-5-5-|
C|-----------------------------55-55-55-55-5-5-|
                               DU DU DU DU D D

D|---------15------15s17s15-|
A|--13--13----13------------|
F|----12--------12----------|
C|--------------------------|
G|--------------------------|
C|--------------------------|x2

D|---------15-------15-------------------------|
A|--13--13----13--13---------------------------|
F|----12--------12-----------------------------|
C|-----------------------------55-55-55-55-5-5-|
G|-----------------------------55-55-55-55-5-5-|
C|-----------------------------55-55-55-55-5-5-|
                               DU DU DU DU D D

D|----------------|
A|----------------|
F|----------------|
C|--77-777-777-77-|
G|--77-777-777-77-|
C|--77-777-777-77-| on last
    DU DUD DUD DU

Verse
D|---------------------------------------------------------------------------|
A|---------------------------------------------------------------------------|
F|---------------------------------------------------------------------------|
C|--7-777777777777777-3-3333333333333333-10-10101010101010101010101010101010-|
G|--7-777777777777777-3-3333333333333333-10-10101010101010101010101010101010-|
C|--7-777777777777777-3-3333333333333333-10-10101010101010101010101010101010-|
    O  PM             O PM-------------- O  PM-------------------------------|

D|-----------------------|
A|-----------------------|
F|-----------------------|
C|-5-5555555555555555----|
G|-5-5555555555555555----|
C|-5-5555555555555555----|
   O PM------------------|


tHIS PART IS A BIT DIFFERENT, THE STUMMING ISNT THE SAME AND U HAVE TO LISTEN FOR THE PM'S
BUT ITS THE SAME CHORDS 7 3 10 5.
                                                 "HEED MY LECTURE"
D|---------------------------------------------------------------|
A|---------------------------------------------------------------|
F|---------------------------------------------------------------|
C|-7-77-7-77-7--3-33-3-33-3--10-1010-10-1010-10--5-5555555555555-|
G|-7-77-7-77-7--3-33-3-33-3--10-1010-10-1010-10--5-5555555555555-|
C|-7-77-7-77-7--3-33-3-33-3--10-1010-10-1010-10--5-5555555555555-|
     PM   PM      PM   PM       PM--    PM--       DUDUDUDUDUDUD

cHORUS
D|---------15------15s17s15-|
A|--13--13----13------------|
F|----12--------12----------|
C|--------------------------|
G|--------------------------|
C|--------------------------|x2

D|---------15-------15-------------------------|
A|--13--13----13--13---------------------------|
F|----12--------12-----------------------------|
C|-----------------------------55-55-55-55-5-5-|
G|-----------------------------55-55-55-55-5-5-|
C|-----------------------------55-55-55-55-5-5-|
                               DU DU DU DU D D

D|---------15------15s17s15-|
A|--13--13----13------------|
F|----12--------12----------|
C|--------------------------|
G|--------------------------|
C|--------------------------|x2

D|---------15-------15-------------------------|
A|--13--13----13--13---------------------------|
F|----12--------12-----------------------------|
C|-----------------------------55-55-55-55-5-5-|
G|-----------------------------55-55-55-55-5-5-|
C|-----------------------------55-55-55-55-5-5-|
                               DU DU DU DU D D


bRIDGE
D|------------------------------------|
A|------------------------------------|
F|--------------*5--------------------|
C|-77777---33333---1010101010---55555-|
G|-77777---33333---1010101010---55555-|
C|-77777---33333---1010101010---55555-|

D|-------------------------------------------------|
A|-----------------------------9-------------------|
F|---------------*3------------12------------------|
C|-77777---33333----1010101010----55555-55-5555555-|
G|-77777---33333----1010101010----55555-55-5555555-|
C|-77777---33333----1010101010----55555-55-5555555-|

cHORUS
D|---------15------15s17s15-|
A|--13--13----13------------|
F|----12--------12----------|
C|--------------------------|
G|--------------------------|
C|--------------------------|x2

D|---------15-------15-------------------------|
A|--13--13----13--13---------------------------|
F|----12--------12-----------------------------|
C|-----------------------------55-55-55-55-5-5-|
G|-----------------------------55-55-55-55-5-5-|
C|-----------------------------55-55-55-55-5-5-|
                               DU DU DU DU D D

D|---------15------15s17s15-|
A|--13--13----13------------|
F|----12--------12----------|
C|--------------------------|
G|--------------------------|
C|--------------------------|x2

D|---------15-------15-------------------------|
A|--13--13----13--13---------------------------|
F|----12--------12-----------------------------|
C|-----------------------------55-55-55-55-5-5-|
G|-----------------------------55-55-55-55-5-5-|
C|-----------------------------55-55-55-55-5-5-|
                               DU DU DU DU D D

OUTRO
D|---------------------------------------------|
A|---------------------------------------------|
F|---------------------------------------------|
C|--7777777--3333333--10101010101010--5555555--|
G|--7777777--3333333--10101010101010--5555555--|
C|--7777777--3333333--10101010101010--5555555--| x2

ELIAS

INTRO

D|--3--3--3----|
A|--1--1--1--3-|
F|--2--2-------|
C|--2--3--3----|
G|--------2--2-|
C|-------------| listen for strumming

Verse
same chords, listen for stumming.
D|--3--3--3----|
A|--1--1--1--3-|
F|--2--2-------|
C|--2--3--3----|
G|--------2--2-|
C|-------------|

Chrous
D|--------------|
A|--------------|
F|--------------|
C|-7--3--10--5--|
G|-7--3--10--5--|
C|-7--3--10--5--| heres the chords, listen for strumming.
comments
print report bad tab
16 comments total. Showing first comments.
0 reply
llama_slap wrote on August 31 2006, 03:59 pm

dude, how does this have 3 stars? I think its damn near perfect, but I won't rate it until you finish the other guitar. Could you finish it before next friday possibly? i would appreciate it because my friend and I are trying to learn this song and none of the other tabs are right. thanks dude

0 reply
Millhouse wrote on September 20 2006, 05:54 pm

yeah this is right. nice job.

0 reply
rock roll boy 7 wrote on March 12 2007, 09:12 pm

i cant really get to seeing that the chorus is right, im not saying your wrong, but im saying maybe im missing something? like an effect or something, cause it just doesnt sound right to me but other wise great tab, sounds right to me.

I want to post or [tab]
guest
You may want to rate the tab now too:
select rating
Please do not post tabs as comments. Select "correction" instead!