Oops, an error
Loading. Please wait.

False Pretense bass

version 1
version 1

Whole song

Interactive

8,322 views 1 this week
8 commentsread comments
1 2 3 4 5
x 9
add to favorites
×
Save as Personal and add changes to this tab that will be seen only by you. Learn more ›
×
You can save this tab as Personal to edit and correct it or add notes. All changes will be seen only by you. Learn more »
launch autoscroll
font size
0
reset
guitar tuner
edit
Autoscroll
slow
fast
+/-
esc
set tempo
stop
Author
Difficulty
Song: False Pretense
Band: The Red Jumpsuit Apparatus
Album: Don’t You Fake It
Tabbed By : A FiRe InSiDe
Email : plain.white.ts__@hotmail.com
Tuning: Standard

Intro:
G|-------------------------------------------------|
D|-------------------------------------------------|
A|--333-666-101010-8-8--66-8-8---333-666-11111111--|
E|-------------------------------------------------|

G|--------------------------------------------|
D|--------------------------------------------|
A|--333-666-101010-8-8--66-8-8---333-666---1--|
E|--------------------------------------------|

Verse:			     …………Set On False Pretence	
G|-----------|-------------|    |----------------------|
D|-----------|-------------|    |----------------------|
A|--33-3-11--|-11-1-11-----| X3 |--11111111-3333-5555--|
E|-----------|-------------|    |----------------------|

Chorus
G|------------------|    |------------|
D|------------------|    |------------|
A|--3-11—6-33-1-33--| X3 |--11111111--|
E|------------------|    |------------|

Verse:
G|--------------------------------|
D|--------------------------------|
A|--333333~-------333333----------| X2
E|--------------------------------|

G|-----------|-------------|    |----------------------|
D|-----------|-------------|    |----------------------|
A|--33-3-11--|-11-1-11-----| X3 |--11111111-3333-5555--|
E|-----------|-------------|    |----------------------|

Chorus
G|------------------|    |------------|
D|------------------|    |------------|
A|--3-11—6-33-1-33--| X3 |--11111111--|
E|------------------|    |------------|

Bridge 
Guitar!
G|---------------------------|------------------------|    
D|---------------------------|------------------------|    
A|------33----11-11—6-5-6-5--|--33----11-11-8--6-5-6--| X2 
E|---------44----------------|-----44-----------------|    

G|-----------------------|------------------------|    |-----------|
D|-----------------------|------------------------|    |-----------|
A|--33----11-11—6-5-6-5--|--33----11-11-8--6-5-6--| X2 |-33--------|
E|-----44----------------|-----44-----------------|    |----4-4-3--|

G|---------------------|
D|---------------------|
A|-3~-----1~-----------|
E|---------------------|

Chorus
G|------------------|    |------------|
D|------------------|    |------------|
A|--3-11—6-33-1-33--| X3 |--11111111--|
E|------------------|    |------------|

Outro:
G|-------------------------------------------------|
D|-------------------------------------------------|
A|--333-666-101010-8-8--66-8-8---333-666-11111111--|
E|-------------------------------------------------|

G|-------------------------------------------------|
D|-------------------------------------------------|
A|--333-666-101010-8-8--66-8-8---333-666---1-1111--|
E|-------------------------------------------------|


            
            
Suggest correction
Creating personal tab
Creating personal tab
You can edit any tab online and save it as your Personal.

You can edit, replace or remove any tab part or add personal notes – all changes will be seen only by you.

Personal tabs can be accessed anytime from any device, even offline.
Learn more »
comments
print report bad tab
8 comments total. Showing first comments.
0 reply
spencer Cr 507 Dec 18, 2006 09:59 AM

yeah pretty good i think i'll use this to help fix up the guitar version.
thanx

0 reply
Combat79 10 Jan 10, 2007 01:34 PM

can't tell if they are 11's or 1's you go too high up on the neck.

0 reply
A FiRe InSiDe 96 Jan 28, 2007 04:02 PM

just to let everyone know.. they are 1's 10 are ten's i dont like to use after 10 cause if u go above that it is just like useing 2 strings down 2 frets forward

guest
You may want to rate the tab now too:
select rating
Wanna post a correction for this tab? Suggest correction