Oops, an error
Loading. Please wait.

False Pretense Tab

version 1
version 1

Whole song

Interactive

50,811 views 30 this week
8 commentsread comments
1 2 3 4 5
accurate
x 12
add to favorites
launch autoscroll
font size
0
reset
how to read this tab
guitar tuner
Autoscroll
slow
fast
+/-
esc
set tempo
stop
Help us to improve Ultimate-Guitar.com Take our survey!
×
Author
Difficulty
Tuning
novice
D A D G B E
I looked at the other tab, pretty good but there are a few confusing parts so i thought 
try and make my own.


Guitar 1(Lead Guitar)

Intro/Chorus

|----------------------------------------------|
|----------------------------------------------|
|--555-888-121212-1010-8888--555-888-33333333--|
|--xxx-xxx-x-x-x--x-x--xxxx--xxx-xxx-xxxxxxxx--|
|--333-666-101010-8-8--6666--333-666-11111111--|
|----------------------------------------------|

|-----------------------------------------|
|-----------------------------------------|
|--555-888-121212-1010-8888--555-888------|
|--xxx-xxx-x-x-x--x-x--xxxx--xxx-xxx-x-8--|
|--333-666-101010-8-8--6666--333-666-x-8--|
|------------------------------------x-6--|

Verse 1, if you have a chorus/flange try it i think it kinda sounds cool

|------------|
|------------|
|-5~---3~----|
|-5~---3~----|
|-3~---1~----|
|------------|

strum these lightly ^ x2

Play this on "Set on false pretense"

Fill
|-----------|
|-----------|
|--55-5-33--|
|--xx-x-xx--|
|--33-3-11--|
|-----------|

Prechorus x3(dont play the 2-0 the 3rd time)
|-------------------------|----------------------|
|-------------------------|----------------------|
|-33-33-33-33--7-5-5------|--33333333-7777/5555--|
|-33-xx-33-xx--x-x-x------|--33333333-xxxx/xxxx--|
|-11-11-11-11--5-3-3------|--11111111-5555/3333--|
|-------------------------|----------------------|
PM..    ..                   ^this play once

Chorus x1

Verse 2 x2 (second time dont play the 7-5--3-| and play the fill)
|--------------------------------------------|
|--------------------------------------------|
|--555555--7-5-5-555555--7-5--3--------------|
|--555555--------555555----------------------|
|--333333--------333333----------------------|
|--------------------------------------------|
PM ......        ......

Prechorus

Chorus

Bridge x2
                         |---play this twice--------------|
|-----------------------------------------------|---------|
|-----------------------------------------------|---------|
|--55----33-33-8\7-8\7----55----33-33-10\8-7/8--|---------|
|--55-66-33-33-x-x-x-x----55-66-33-33-x--x-x-x--|--<4>----|- 1st time only
|--33-66-11-11—6\5-6\5----33-66-11-11-8-\6-5/6--|---------|
|-----44---------------------44-----------------|---------|

Last time only
|-------------|
|-------------|
|--55---------|
|--55-66-3~---|
|--33-66-3~---|
|-----44-1~---|

Inderlude (with the chorus/ flange if youd like)
|-----------|
|-----------|
|-5~---3~---|
|-5~---3~---|
|-3~---1~---|
|-----------|

Chorus x2

End on
|-------|
|-------|
|---3~--|
|---3~--|
|---1~--|
|-------|

Guitar 2 (Rythem Guitar)

Intro/Chorus x2       Strum these
|----------------|------------|
|----------------|------------|
|--5-3-8-5-3-5-3-|--33333333--|
|--5-3-8-5-3-5-3-|--33333333--|
|--3-1—6-3-1-3-1-|--11111111--|
|----------------|------------|

No Verse

Fill
|----------|
|----------|
|-77-7-55--|
|-xx-x-xx--|
|-55-5-33--|
|----------|

Prechorus x3      x1
|--------------|------------|
|--------------|------------|
|--55-55-55-55-|-5555-7777--|
|--xx-xx-xx-xx-|-xxxx-xxxx--|
|--33-33-33-33-|-3333-5555--|
|--------------|------------|

Chorus

Verse 2 x2
|-----------------------------|
|-----------------------------|
|-55555555555555555555555555--|
|-55555555555555555555555555--|
|-33333333333333333333333333--|
|-----------------------------|
PM..........................

Prechorus

Chorus

Bridge Pt 1 x2
|----------|
|----------|
|-55----33-|
|-55-66-33-|
|-33-66-11-|
|----44----|

Pt 2 x4
|----------------|
|----------------|
|-55----33-33-33-|
|-55-66-33-33-33-|
|-33-66-11-11-11-|
|----44----------|

No Interlude

Chorus x2

End on
|-------|
|-------|
|---3~--|
|---3~--|
|---1~--|
|-------|
Suggest correction
What's this?
You can suggest a correction to this tab. Community and Mods will review your correction and vote to approve or reject it.
comments
print report bad tab
8 comments total. Showing first comments.
0 reply
spencer Cr 788 wrote on February 28 2007, 02:54 pm

pretty cool, now do you thnk you could tab the rythm guitar as well,

thanks

0 reply
spencer Cr 788 wrote on February 28 2007, 02:56 pm

oh, wait, never mind i found it, scratch my last comment.

still pretty good though

0 reply
strat_this22 140 wrote on June 25 2007, 09:52 am

to messy

guest
You may want to rate the tab now too:
select rating
Please do not post tabs as comments. Select "correction" instead!