Oops, an error
Loading. Please wait.

False Pretense Tab

version 2
version 2

Whole song

Interactive

34,854 views 36 this week
8 commentsread comments
1 2 3 4 5
excellent!
x 12
add to favorites
launch autoscroll
font size
0
reset
how to read this tab
guitar tuner
Autoscroll
slow
fast
+/-
esc
set tempo
stop
Help us to improve Ultimate-Guitar.com Take our survey!
×
Contributor
Difficulty
Tuning
novice
D A D G B E
False Pretense-The Red Jumpsuit Apparatus
Tabbed by:nickkk
Email:

Tuning:Drop D
im nickkk
this song wuz pretty hard to tab out
dnt be too harsh cuz im only 14 plzz lol
srrry if its a bit confusin

guitar 1-elias reidy
guitar 2-duke kitchens

pleasee rate...i think this might be around 99% correct


Intro,chorus
_________________________________________________________________
guitar 1
e|-------------------------------------------------------------|
B|-------------------------------------------------------------|
G|---888101010121212101010---12-8--88877788888--1010887--------|
D|---xxx-x-x-x-x-x-x-x-x-x----x-x--xxxxxxxxxxx--x-x-xxx--------|
A|---666-8-8-8101010-8-8-8---10-6--66655566666--8-8-665--------|
E|-------------------------------------------------------------|

e|-----------------------------------------------------|
B|-----------------------------------------------------|
G|---888101010121212101010---12-8--888777----x--7~-----|
D|---xxx-x-x-x-x-x-x-x-x-x----x-x--xxxxx-----x--x~-----|
A|---666-8-8-8101010-8-8-8---10-6--66655-----x--5------|
E|-----------------------------------------------------|

guitar 2
e|-------------------------------|
B|-------------------------------|
G|---555888----------------------|
D|---555xxx-666555333------------|
A|---333666-666555333------------|
E|----------666555333------------|

e|-------------------------------|
B|-------------------------------|
G|---555333----------------------|
D|---555333-666555333------------|
A|---333111-666555333------------|
E|----------666555333------------|

e|-------------------------------|
B|-------------------------------|
G|---555888----------------------|
D|---555xxx-666555333------------|
A|---333666-666555333------------|
E|----------666555333------------|

e|-------------------------------|
B|-------------------------------|
G|---555333-----x--3~------------|
D|---555333-----x--3-~-----------|
A|---333111-----x--1~------------|
E|-------------------------------|
_________________________________________________________________

Verse1 pt1
guitar 1 and 2 do nothing
____________________________________________________________________________
Verse 1 pt 2
guitar 1
e|--------------------------|
B|--------------------------|
G|--1212--1210-8------------|
D|---x-x---x-x-x------------|
A|--1010--10-8-6------------|
E|--------------------------|
    Set a false pretense!

guitar 2
e|--------------------------|
B|--------------------------|
G|--55--5--3----------------|
D|--55--5--3-4--------------|
A|--33--3--1-4--------------|
E|-----------4--------------|
    Set a false pretense!

___________________________________________________________________
verse 1 pt 3

guitar 1  (try to staccato the 8's)(palm mute the single 6's)
e|----------------------------------------------------------------|
B|----------------------------------------------------------------|
G|-------8-88-----8-88--------------8-88-----8-88-----------------|
D|-------8-88-----8-88-----8--------8-88-----8-88---8-------------|     x2
A|-------6-66-----6-66------8----6--6-66--6--6-66----8------------|
E|----6--6-66--6--6-66-6------------------------------------------|

Betray, you're not gonna be willing to change

guitar 2 (palm mute the single 6's and 10's)
e|----------------------------------------------------------------------|
B|----------------------------------------------------------------------|
G|-------------------------------12-1212------12-1212-------------------|
D|-------------------------------10-1010------10-1010---8--6------------|
A|-----6-66-----6-66---8-10------10-1010------10-1010---8--6-----6-66---|
E|--6--6-66--6--6-66---8-10--10--10-1010--10--10-1010---8--6--6--6-66---|


e|------------------|
B|------------------|
G|------------------|
D|----------6-------|
A|----6-66--6-------|
E|-6--6-66--6-------|

___________________________________________________________________________
Prechorus
bth guitars

gradually release palm mute
e|--------------------------------------------------------------------|
B|--------------------------------------------------------------------|
G|--------------------------------------------------------------------|
D|-----5555555--------------------------------------------------------|
A|-----5555555--------------------------------------------------------|
E|-----5555555--------------------------------------------------------|
pm.........
_____________________________________________________________________
Chorus (repeat intro)
_____________________________________________________________________
2nd verse
guitar 1(palm mute the alternating 5's and 8's)
e|------------------------------------------------------------------------|
B|------------------------------------------------------------------------|
G|----5---5---5---5---5---5----8-7-5-------5---5---5---5---5---5----10-888|
D|------8---8---8---8---8---8---------8-----8---8---8---8---8---8---------|
A|------------------------------------------------------------------------|
E|------------------------------------------------------------------------|


e|-------------------------------------------------------------------------|
B|-------------------------------------------------------------------------|
G|-5---5---5---5---5---5---8-7-5----5---5---5---5---5---5-------1212-1210-8|
D|---8---8---8---8---8---8------------8---8---8---8---8---8------x-x--x-x-x|
A|--------------------------------------------------------------1010-10-8-6|
E|-------------------------------------------------------------------------|


guitar 2
e|-----------------------------------------------------------------|
B|-----------------------------------------------------------------|
G|-----------------------------------------------------------------|
D|-----------------------------------------------------------------|
A|---666666666666-8888-101010101010101010101010-8888---------------|
E|---666666666666-8888-101010101010101010101010-8888---------------|
...................................................


e|-------------------------------------------------------------|
B|-------------------------------------------------------------|
G|----------------------------------------------55--5-3--------|
D|----------------------------------------------55--5-3-4------|
A|---666666666666-8888-101010101010101010101010-33--3-1-4------|
E|---666666666666-8888-101010101010101010101010---------4------|
..............................................
_______________________________________________________________
repeat verse 1 pt 3 and prechorus
_______________________________________________________________
repeat chorus (intro)
_______________________________________________________________
Bridge
guitar 1 and 2 (guitar does the pulls offs and hammer ons)
e|-----------------------------------------------------------|
B|-----------------------------------------------------------|
G|---55---------------------55-------------------------------|
D|---55--66--88-------------55--66--88-----------------------|
A|---33--66--88--6p5-6p5----33--66--88---10p8-6h8------------|
E|-------66--88-----------------66--88-----------------------|

e|---------------------------------------------------|
B|---------------------------------------------------|
G|---55---------------------55-----------------------|
D|---55--66--88-------------55--66--88--------8*-----|
A|---33--66--88--6p5-6p5----33--66--88---10p8--------|
E|-------66--88-----------------66--88---------------|

e|------------------------------------------------|
B|------------------------------------------------|
G|---55---------------------55--------------------|
D|---55--66--88-------------55--66--88------------|
A|---33--66--88--6p5-6p5----33--66--88---10p8-6h8-|
E|-------66--88-----------------66--88------------|

e|---------------------------------------------------------|
B|---------------------------------------------------------|
G|---55---------------------55-----------------------------|
D|---55--66--88-------------55--66--88--8~-----------------|
A|---33--66--88--6p5-6p5----33--66--88--8~-----------------|
E|-------66--88-----------------66--88--8~-----------------|


 (palm mute the 6s and 8s on both strings)
e|-----------------------------------------------------------|
B|-----------------------------------------------------------|
G|-----5~---7~-----------------------------------------------|
D|-----5~---7~--------------10-------------------------------|
A|-----3~---5~---------6688-10-------------------------------|
E|---------------------6688-10-------------------------------|

____________________________________________________________________________
finaly repeat the chorus
guitar 1 end on
e|------------|
B|---11-------|
G|----x-------|
D|----8-------|
A|------------|
E|------------|

guitar 2 end on
e|---------------|
B|---------------|
G|----3----------|
D|----3----------|
A|----1----------|
E|---------------|

* pinch harmonic
| .   palm mute
| /  slide up
| \  slide down
| h  hammer-on
| p  pull-off
| ~  let ring
| +  harmonic
| x  Mute note
============================================================
comments
print report bad tab
8 comments total. Showing first comments.
+1 reply
bgbnbigben 107 wrote on July 1 2008, 02:18 am

great tab, but the first verse (part 1) is missing some natural harmonics, and the final chorus/outroy thingy needs a different part for the second guitar (the first continues the intro/chorus riff but the second doesnt)
Other than that, its a perfect tab

0 reply
Sam Rulez D00d 1,830 wrote on August 5 2008, 02:38 pm

i think bqbnbigben is being a little too technical (no offense 2 u bigben). i think this tab perfect.

0 reply
GuitaristMatt94 70 wrote on August 17 2008, 05:30 pm

Definately not around 99% correct. I'll give you 90% though. 4*

I want to post or [tab]
guest
You may want to rate the tab now too:
select rating
Please do not post tabs as comments. Select "correction" instead!