Oops, an error
Loading. Please wait.

Getting By Tab

1,161 views 1 this week
no commentswrite comment
1 2 3 4 5
please rate
add to favorites
launch autoscroll
font size
0
reset
how to read this tab
guitar tuner
Autoscroll
slow
fast
+/-
esc
set tempo
stop
Help us to improve Ultimate-Guitar.com Take our survey!
×
Tuning
D A D G B E
Intro(x2)
e------------------------|
B------------------------|
G--5---------------------|
D--x-(x8)----------------|
A--3---------------------|
D------------------------|

Dont know how many times so ill just give you chords
e-----------------------------------------------------|
B-----------------------------------------------------|
G-10---9---7---9--10--9-12-10-9-----------------------|
D-x----x---x---x--x---x--x-x--x-(whole thing times 2)-|
A-8----7---5---7--8---7-10-8--7-----------------------|
D-----------------------------------------------------|

verse(play these in a certain rhythym till chorus)
e--------------------|
B--------------------|
G-10--------7--------|
D-x---------x--------|
A-8---------5--------|
D--------------------|
chorus(listen to songs for strumming)
e--------------------|
B--------------------|
G---10---9---7---9---|
D---x----x---x---x---|  (x2)
A---8----7---5---7---|
D--------------------|
After chorus
e----------------|
B----------------|
G-10---9---7--5--|
D----------------|    (x2)
A----------------|
D----------------|
Bridge(palm mute)not sure about this part
e----------------------------------------|
B----------------------------------------|
G----------------------------------------|
D----------------------------------------|
A--7-8-7-10-8-7-8-9-10-9-12-10-9-10------|
D--7-8-7-10-8-7-8-9-10-9-12-10-9-10------|
order
Intro
verse
chorus
after chorus
verse
chorus
bridge
outro (play chorus)
well there u have it not super good but i tried so tell me wut u think
Suggest correction new What's this?
You can suggest a correction to this tab. Community and Mods will review your correction and vote to approve or reject it.
comments
We did not receive enough feedback on this tab! Please rate:
print report bad tab
1 2 3 4 5
guest
You may want to rate the tab now too:
select rating
Please do not post tabs as comments. Select "correction" instead!