Oops, an error
Loading. Please wait.

Godspeed Tab

version 1
version 1

Whole song

Interactive

2,448 views 1 this week
1 commentread comment
1 2 3 4 5
please rate
add to favorites
launch autoscroll
font size
0
reset
how to read this tab
guitar tuner
Autoscroll
slow
fast
+/-
esc
set tempo
stop
Help us to improve Ultimate-Guitar.com Take our survey!
×
Author
---------------------------------------------------------------------------
                             Godspeed - Red Jumpsuit Apparatus
---------------------------------------------------------------------------

Tabbed by:Jordan
Email: Jordangrainger@hotmail.co.uk

Tuning: Drop C

Strumming patterns haven't been give, easy to figure out.


   Intro:

Rhythm:

D|---------|
A|---------|
F|---2---2-|
C|-0-2-0-2-|
G|-0-0-0-0-|
C|-0---0---|

Lead:

D|------------------------------------------------------|
A|------------------------------------------------------|
F|-7-9-12-11-9-7-9~-----11/9~--7-9-12-11-9-7-9~-7/6-4/2-|
C|------------------------------------------------------|
G|-5-7-10-9--7-5-7~------9/7~--5-7-10-9--7-5-7~-5/4-2/0-|
C|------------------------------------------------------|


Verse:

D|------------------|
A|------------------|
F|---2---2---2---2~-|
C|-0-2-5-2-0-2-5-2~-|
G|-0-0-5-0-0-0-5-0~-|
C|-0---5---0---5----|


  Chorus:
 
Rhythm:

D|------------------|
A|------------------|
F|---2---2---2---2~-|
C|-0-2-5-2-0-2-5-2~-|
G|-0-0-5-0-0-0-5-0~-|
C|-0---5---0---5----|

Lead:

D|------------------------------------------------------|
A|------------------------------------------------------|
F|-7-9-12-11-9-7-9~-----11/9~--7-9-12-11-9-7-9~-7/6-4/2-|
C|------------------------------------------------------|
G|-5-7-10-9--7-5-7~------9/7~--5-7-10-9--7-5-7~-5/4-2/0-|
C|------------------------------------------------------|

Post-Chorus:

D|------------------|
A|------------------|
F|---2---2---2---2~-|
C|-0-2-5-2-0-2-5-2~-|
G|-0-0-5-0-0-0-5-0~-|
C|-0---5---0---5----|

Intro
Verse
Chorus
Post-Chorus

Bridge:

D|-----------------|
A|-----------------|
F|-5-----2-5-----2-|
C|-5-5-0-2-5-5-0-2-|
G|-3-5-0-0-3-5-0-0-|
C|---5-0-----5-0---|

Chorus

Outro:

D|-------|
A|-------|
F|-------|
C|--0~---|
G|--0~---|
C|--0~---|
Suggest correction
Give kudos to tab author, rate the tab!
1 2 3 4 5
comments
print report bad tab
1 comment total.
0 reply
=(Cody=) 148 wrote on January 2 2010, 05:38 pm

i love you.

i really didn't think it sounded right with acoustic chords in standard tuning, this sounds much more like it. thanks a bunch =))))

guest
You may want to rate the tab now too:
select rating
Wanna post a correction for this tab? Suggest correction