Oops, an error
Loading. Please wait.

Grimm Goodbye Tab

1,255 views 3 this week
1 commentread comment
1 2 3 4 5
please rate
add to favorites
launch autoscroll
font size
0
reset
how to read this tab
guitar tuner
Tab Pro tools
  • play this tab
  • loop segment
  • change instrument
  • show fretboard
  • metronome
×
Best way to learn
"Grimm Goodbye"
Autoscroll
slow
fast
+/-
esc
set tempo
stop
Contributor
Difficulty
Tuning
intermediate
D A D G B E
the Grimm Goodbye
the Red Jumpsuit apparatus
Don't you fake it

Intro: Guitar 1
|----------------------------8-8--|
|---------------------------------|
|-----10p8-8-7-8-----10p8-8-------|(x2) then continue three more 
|---------------------------------|when second guitar starts up.
|---------------------------------|
|--0--------------0---------------|
Guitar 2
|----------------------------------|
|----------------------------------|
|----------------------------------|
|----------------------------0--0--|(x3)
|----------------------------0--0--|
|----------------------------0--0--|

guitar 2
|------------|
|------------|
|---7-77-77--|
|---7-77-77--|
|---5-55-55--|
|------------|

guitar 1
|----------------------------8-8--|
|---------------------------------|
|-----10p8-8-7-8-----10p8-8-------|(x4) 
|---------------------------------|
|---------------------------------|
|--0--------------0---------------|

guitar 2
|---------------------------------|
|---------------------------------|
|--99999999999999999999999999999--|
|--xxxxxxxxxxxxxxxxxxxxxxxxxxxxx--|(x4)
|--77777777777777777777777777777--|
|---------------------------------|
Wooooo, oh, oh, oh, oh, oh, oh,
Oh, oh, oh, oh my eyes.
Wooooo, oh, oh, oh, oh, oh, oh,
Oh, oh, oh, oh was it too late.

|------------15--|
|----------------|
|--77777777------|
|--xxxxxxxx------|
|--55555555------|





Pre-Verse: guitar 1 
|-----------|
|-----------|
|-----------|
|--55--0-1--|(x4)
|--55--0-1--|
|--55--0-1--|
Don’t you try to take me down (no!)
Don’t you try to take me over
Won’t you try to break me

|------------|
|------------|
|--55555555--|
|--xxxxxxxx--|
|--33333333--|
|------------|

Guitar 2 (x2)
|No-distortion----|
|-----------------|
|-----------------|
|--5----8----3----|
|--5----8----3----|
|--3----6----1----|
|-----------------|
The complexities moving in
And I feel that I do not have the strength
Tragedies breaking me solemnly
It’s affecting my will.

Guitar 1
|------|
|------|
|--12--|
|--x---|
|--10--|
|------|
 
Verse: Guitar 1
|-------------------|
|-------------------|
|--7----7----7------|
|--x----x----x------|
|--5----5----5------|
|-------------------|

Guitar 2
|------------------------15--|
|----------------------------|
|-------------10h12-10-------|
|----------------------------|
|----------------------------|
|----------------------------|
But wait now that I’ve you


Guitar 1
|-------------------|
|-------------------|
|--5----5----5------|
|--x----x----x------|
|--3----3----3------|
|-------------------|

Guitar 2
|-----------------------|
|-----------------------|
|-----------------------|
|-----------------------|
|--------------5-6-5-3--|
|-----------------------|
Situations from dark now change to blank

Guitar 1
|-------------------|
|-------------------|
|--7----7----7------|
|--x----x----x------|
|--5----5----5------|
|-------------------|

Guitar 2
|------------------------------|
|------------------------------|
|---------------10-8----10-8---|
|--------------------8-------8-|
|------------------------------|
|------------------------------|
disregarding my absence of memories

Guitar 1
|-------------------|
|-------------------|
|--5----5----5------|
|--x----x----x------|
|--3----3----3------|
|-------------------|

Guitar 2
|-----------------------|
|-----------------------|
|-----------------------|
|-----------------------|
|--------------5-6-5-3--|
|-----------------------|
It’s perpetually binding you Saturday

Guitar 1
|-------------------|
|-------------------|
|--7----7----7------|
|--x----x----x------|
|--5----5----5------|
|-------------------|

Guitar 2
|------------------|----|-----------|
|------------------|----|-----------|
|------------------|----|-----------|
|--8-10-8----------|(x7)|-----------|
|----------10-9-8--|----|--5-6-5-3--|
|------------------|----|-----------|
PM . .  .  .  . .
And just when I’m getting in
As I try to Scout these walls

Guitar 1
|-------------------|
|-------------------|
|--7----7----7------|
|--x----x----x------|
|--5----5----5------|
|-------------------|

Guitar 2
|------------------15---|
|-----------------------|
|-----------------------|
|-----------------------|
|-----------------------|
|-----------------------|
Karakul falls around me

 Guitar 1
|-------------------|
|-------------------|
|--5----5----5------|
|--x----x----x------|
|--3----3----3------|
|-------------------|

Guitar 2
|----------------------|
|----------------------|
|----------------------|
|----------------------|
|----------------------|
|--------------4-5-6---|
and I feel that I've stayed to long

pre-chorus: Guitar 1 (no distiorion/quiet)
|-----------------------------------------|
|------------------------------8-------8--|
|-----------------------------------------|
|--8h10-10-10--8h10-10-10--8-8----8-8-----|(x2)
|-----------------------------------------|
|-----------------------------------------|
And darkness is fading in
And dark is his will


guitar 2
|-----------------------------------|
|-----------------------------------|
|-----------------------------------|
|--------------------------3-33-33--|
|--------------------------3-33-33--|
|--------------------------3-33-33--|
                           . .. ..
chorus: both
|-----------------------------------|
|-----------------------------------|
|-----------------------------------|
|--0--06--60--565--0--06--60---563--|
|--0--06--60--565--0--06--60---563--|             
|--0--06--60--565--0--06--60---563--|

|-----------------------------------|
|-----------------------------------|
|-----------------------------------|
|--0--06--60--565--0--06--60---456--|
|--0--06--60--565--0--06--60---456--|             
|--0--06--60--565--0--06--60---456--|
Wooooo, oh, oh, oh, oh, oh, oh,
Oh, oh, oh, oh my eyes.
Wooooo, oh, oh, oh, oh, oh, oh,
Oh, oh, oh, oh was it too late.
I try!

pre-verse: 
|------------------------8--|
|---------------------------|
|--5---------------5--------|
|--x--5-3-1-0-1----x--------|(x2)
|--3------------3--3--------|
|---------------------------|
      . . . . . .

Verse: Guitar 1
|-------------------|
|-------------------|
|--7----7----7------|
|--x----x----x------|
|--5----5----5------|
|-------------------|

Guitar 2
|------------------------15--|
|----------------------------|
|-------------10h12-10-------|
|----------------------------|
|----------------------------|
|----------------------------|
Fate, seams to recreate.

Guitar 1
|-------------------|
|-------------------|
|--7----7----7------|
|--x----x----x------|
|--5----5----5------|
|-------------------|

guitar 2
|--------------------------------------|
|--------------------------------------|
|--------------------10p8--------------|
|--------------------------10-8--------|
|-------------------------------10-8---|
|--------------------------------------|
I Just Can not Escape

Guitar 1
|-------------------|
|-------------------|
|--7----7----7------|
|--x----x----x------|
|--5----5----5------|
|-------------------|

Guitar 2
|------------------------------|
|------------------------------|
|---------------10-8----10-8---|
|--------------------8-------8-|
|------------------------------|
|------------------------------|
Something holds me down 
And makes me

Guitar 1
|-------------------|
|-------------------|
|--5----5----5------|
|--x----x----x------|
|--3----3----3------|
|-------------------|

Guitar 2
|----------------------|
|----------------------|
|----------------------|
|----------------------|
|----------------------|
|--------------4-5-6---|
I don’t wear, I can’t explain

Guitar 1
|-------------------|
|-------------------|
|--7----7----7------|
|--x----x----x------|
|--5----5----5------|
|-------------------|

Guitar 2
|------------------|----|-----------|
|------------------|----|-----------|
|------------------|----|-----------|
|--8-10-8----------|(x7)|-----------|
|----------10-9-8--|----|--5-6-5-3--|
|------------------|----|-----------|
PM . .  .  .  . .
Even now I feel it coming
Over me choking me
As I fall out behind

Guitar 1
|-------------------|
|-------------------|
|--7----7----7------|
|--x----x----x------|
|--5----5----5------|
|-------------------|

Guitar 2
|------------------15---|
|-----------------------|
|-----------------------|
|-----------------------|
|-----------------------|
|-----------------------|
you can stay or leave.

Guitar 1
|-------------------|
|-------------------|
|--5----5----5------|
|--x----x----x------|
|--3----3----3------|
|-------------------|

Guitar 2
|--------------------------------|
|--------------------------------|
|--------------------------------|
|--------------------------------|
|--------------------------------|
|------------------------4-5-6---|
But you have no clue 
What my dreams could show you

pre chorus: Guitar 1 (no distortion/quiet)
|-----------------------------------------|
|------------------------------8-------8--|
|-----------------------------------------|
|--8h10-10-10--8h10-10-10--8-8----88------|(x2)
|-----------------------------------------|
|-----------------------------------------|

guitar 2 (with feed back)
|-----------------------------------|
|-----------------------------------|
|-----------------------------------|
|--------------------------3-33-33--|
|--------------------------3-33-33--|
|--------------------------3-33-33--|
                           . .. ..
And darkness is fading in
And dark is his will

chorus: both
|-----------------------------------|
|-----------------------------------|
|-----------------------------------|
|--0--06--60--565--0--06--60---563--|
|--0--06--60--565--0--06--60---563--|             
|--0--06--60--565--0--06--60---563--|

|-----------------------------------|
|-----------------------------------|
|-----------------------------------|
|--0--06--60--565--0--06--60---456--|
|--0--06--60--565--0--06--60---456--|             
|--0--06--60--565--0--06--60---456--|
Wooooo, oh, oh, oh, oh, oh, oh,
Oh, oh, oh, oh my eyes.
Wooooo, oh, oh, oh, oh, oh, oh,
Oh, oh, oh, oh was it too late.
I try!

bridge: Guitar 1
|-----------------------------------------|
|------------------------------8-------8--|
|-----------------------------------------|
|--8h10-10-10--8h10-10-10--8-8----88------|(x4)
|-----------------------------------------|
|-----------------------------------------|
I!
Can’t!
Can’t Wait! (tell me what you see)

guitar 2
|--------|
|--13----|
|--15^---|
|--------|
|--------|
|--------| 

Guitar 1
|-----------------------------------------|
|------------------------------8-------8--|
|-----------------------------------------|
|--8h10-10-10--8h10-10-10--8-8----88------|(x4)
|-----------------------------------------|
|-----------------------------------------|
 
Guitar 2
|-----------------------|
|-----------------------|
|-----------------------|
|--1111111111111111111--|
|--1111111111111111111--|
|--1111111111111111111--|
   ...................
I feel something deep inside me
I feel deep in side!

Guitar 1
|----------------------------|
|----------------------------|
|--5-------3-------7---------|
|--x-------x-------x------0--|(x2)
|--3-------1-------5------0--|
|-------------------------0--|

guitar 2
|-----------------------------|
|-----------------------------|
|-----------------------------|(x2)
|--333333--111111--555555--0--|
|--333333--111111--555555--0--|
|--333333--111111--555555--0--|
I feel somethin' deep inside me
And I can’t let this go
I feel something deep inside me
And I can’t let this go

Guitar 1
|----------------------|
|----------------------|
|--121212121212--17----|
|--x-x-x-x-x-x---x-----|(x7)
|--101010101010--15----|
|----------------------|
guitar 2
|----------------------------|
|----------------------------|
|----------------------------|(x6)
|--3------1-------5-------0--|
|--3------1-------5-------0--|
|--3------1-------5-------0--|
Lies!
As I try to stay awake
I try to stay sober
This is taking me over
And my dreams tumble down

Guitar 1
|-------------|
|-------------|
|--5-------5--|
|--x--xx-x-x--|(x3)
|--3--xx-x-3--|
|-----xx-x----|

Guitar 2
|---------------------------|
|---------------------------|
|---------------------------|
|--------------1p0----------|(x3)
|------------------2p1------|
|----------------------3p2--|
I just cannot let us lose!
I tried so many times to tell you!
My dreams are trying to make us lose

Guitar 1
|--------------------------|
|--------------------------|
|------5------7------5-----|
|--00--x--00--x--00--x--3--|
|--00--3--00--5--00--3--3--|
|--00-----00-----00-----3--|
   ..     ..     ..     
I just cannot win

Guitar 1
|------------------------------------|
|------------------------------------|
|------------------------------------|
|--10-8-10-8-10-8--------------------|(x4 without guitar 2) 
|--------------------10-8-10-8-10-8--|(x4 with guitar 2)
|------------------------------------|

Guitar 2
|-------------------------------8------|
|--8-------------------8---------------|
|----8-8-----------------8-8------8-8--|
|-----------12-13-12-------------------|(x4)
|--------------------------------------|
|--------------------------------------|
I see you
I see you 
Falling away
I see you

(No guitars)killing me softly

Guitar 1
|------------------------------------|
|------------------------------------|
|------------------------------------|
|--10-8-10-8-10-8--------------------|(x4 without guitar 2) 
|--------------------10-8-10-8-10-8--|(x4 with guitar 2)
|------------------------------------|

Guitar 2
|-------------------------------8------|
|--8-------------------8---------------|
|----8-8-----------------8-8------8-8--|
|-----------12-13-12-------------------|(x4)
|--------------------------------------|
|--------------------------------------|
I see you
I see you 
Falling away
I see you

Guitar 1
|------------------------|
|------------------------|
|------------------------|(x4 without guitar 2)
|-------5--------000-----|then
|----5----6-5----000-----|(x4 with guitar 2)
|--5----------5--000-----|
   . . .  . . .  ...
Guitar 2
|-------------|
|-------------|
|---12121212--|
|---12121212--|(x4)
|---10101010--|
|-------------|
Don’t take what’s in front of me
Open eyes can see
I am everything
Tell you Don’t take what’s in front of me
Tell you don’t take what’s in me!

either guitar
|---------------------|
|--11-11-10(x3)-13-13-|
|--12-12-12-----12-12-|
|---------------------|
|---------------------|
|---------------------|

chorus: both
|-----------------------------------|
|-----------------------------------|
|-----------------------------------|
|--0--06--60--565--0--06--60---563--|
|--0--06--60--565--0--06--60---563--|             
|--0--06--60--565--0--06--60---563--|

|-----------------------------------|
|-----------------------------------|
|-----------------------------------|
|--0--06--60--565--0--06--60---456--|
|--0--06--60--565--0--06--60---456--|             
|--0--06--60--565--0--06--60---456--|
Lies! That’s what lies.
And I feel this come away.
Away oh, oh, oh, oh.
That’s what I cried No 


Intrulude
Guitar 1
|----------------------------------------|
|----------------------------------------|
|--5(x32)--5(x6)--5(x16)--5(x6)--5(x16)--|
|----------------------------------------|
|----------------------------------------|
|----------------------------------------|
   .              .              . 
       
|--------------------------------|
|---------3-------3(x6)----------|
|--5(x6)--5(x6)-----------5(x6)--|four times with palm mute, and twice 
|--------------------------------|without. Then twice with guitar 2
|--------------------------------|
|--------------------------------|  
Wooooo, oh, oh, oh, oh, oh, oh,
Oh, oh, oh, oh.
Wooooo, oh, oh, oh, oh, oh, oh,
Oh, oh, oh, oh.
Wooooo, oh, oh, oh, oh, oh, oh,
Oh, oh, oh, oh.
Wooooo, oh, oh, oh, oh, oh, oh,
Oh, oh, oh, oh.

Guitar 2 
|-----------------------------------|--------|
|-----------------------------------|--14----|
|--5----5----7----5----5----7----5--|--16^---|
|--x----x----x----x----x----x----x--|--------|
|--3----3----5----3—---3----5----3--|--------|
|-----------------------------------|--------|
I see you walking away
Dreams be fall of everyday
But I see you walking away             

chorus: Guitar 1
|-----------------------------------|
|-----------------------------------|
|-----------------------------------|
|--0--06--60--565--0--06--60---563--|
|--0--06--60--565--0--06--60---563--|             
|--0--06--60--565--0--06--60---563--|

|-----------------------------------------|
|-----------------------------------------|
|-----------------------------------------|
|--0--06--60--565--0--06--66--66-66--456--|
|--0--06--60--565--0--06--66--66-66--456--|             
|--0--06--60--565--0--06--66--66-66--456--|

Guitar 2
|--------------------------------------|
|--------------------------------------|
|------------------------------777777--|
|--0--06--60--565--0--06--60---xxxxxx--|
|--0--06--60--565--0--06--60---555555--|      
|--0--06--60--565--0--06--60-----------|

|----------------------------------------|
|----------------------------------------|
|--88888888-777788887777-77--77-77--456--|
|--xxxxxxxx-xxxxxxxxxxxx-xx--xx-xx--456--|
|--66666666-555566665555-55--55-55--456--|
|----------------------------------------|
(sorry I can’t understand what the singer is singing, no lyrics this time)

Outro:
|-----------------------------------------|
|------------------------------8-------8--|
|-----------------------------------------|
|--8h10-10-10--8h10-10-10--8-8----88------|(x3) slow down for each.
|-----------------------------------------|
|-----------------------------------------|
And I know you,
And I know you
|-----------------------------------|
|-----------------------------------|
|--------------------------7-8(x5)--|
|--8h10-10-10--8h10-10-10-----------|
|-----------------------------------|
|-----------------------------------|
And I know you
|-------------------|
|-------------------|
|-------------------|
|---0--------------0|
|---0--------------0|
|---0--------------0|
War!

End.
comments
We did not receive enough feedback on this tab! Please rate:
print report bad tab
1 2 3 4 5
1 comment total.
0 reply
Millhouse wrote on September 20 2006, 05:51 pm

no

I want to post or [tab]
guest
You may want to rate the tab now too:
select rating
Please do not post tabs as comments. Select "correction" instead!