Oops, an error
Loading. Please wait.

Home Improvement Tab

version 1
version 1

Whole song

4,199 views 6 this week
no commentswrite comment
1 2 3 4 5
excellent!
x 4
add to favorites
launch autoscroll
font size
0
reset
how to read this tab
guitar tuner
Tab Pro tools
  • play this tab
  • loop segment
  • change instrument
  • show fretboard
  • metronome
×
Best way to learn
"Home Improvement"
Autoscroll
slow
fast
+/-
esc
set tempo
stop
Difficulty
novice
The Red Jumpsuit Apparatus
Home Improvement
Tabbed by Zachary Snow
zachary.snow@gmail.com

Notes: Song is 2 guitars. Tabbed for one guitar.

Tuning - Drop D(DADGBe)

Intro:
(Listen to song for timing)

e|----------------------------|
B|----------------------------|
G|--4--3---------------4-3----|
D|--x--x---------------4-3----|
A|--2--1-------1xx-2xx-2-1----|
D|-------------1xx-2xx--------|

Verse 1:

A silhouette waits outside my window...

e|--------------|
B|--------------|
G|--4--3--------|
D|--4--3--------|
A|--2--1--1--2--|
D|--------1--2--|
    pm..........

I wake up, another day without you...

       +-----------+-----------+-------------Mute Strings
       |           |           |
e|-----x-----------x-----------x-----------------|
B|-----x-----------x-----------x-----------------|
G|--4--x-2------3--x-3---------x-----------4--3--|
D|--4--x-4------3--x-3---------x-----------x--x--|
A|--2--x-4------1--x-1------1--x-1------2--2--1--|
D|-----x-----------x--------1--x-1------2--------|

Chorus:
(Listen to song for timing)

e|-------------------------------|
B|---------------4-------4-------|
G|--4-----------4-4-4-3-4-4------|
D|--4--4--6--2------x-x----------| x2
A|--2--4--6--2------2-1-----1-2--|
D|-----4--6--2--------------1-2--|

Verse 2:

I'm not sick, I'm not wierd...

       +-----------+-----------+-------------Mute Strings
       |           |           |
e|-----x-----------x-----------x-----------------|
B|-----x-----------x-----------x-----------------|
G|--4--x-2------3--x-3---------x-----------4--3--|
D|--4--x-4------3--x-3---------x-----------x--x--|
A|--2--x-4------1--x-1------1--x-1------2--2--1--|
D|-----x-----------x--------1--x-1------2--------|

Chorus:
(Listen to song for timing)

e|-------------------------------|
B|---------------4-------4-------|
G|--4-----------4-4-4-3-4-4------|
D|--4--4--6--2------x-x----------| x2
A|--2--4--6--2------2-1-----1-2--|
D|-----4--6--2--------------1-2--|

Bridge:
(Listen to song for timing)

e|-------------|
B|-------------|
G|--4----------|
D|--4--4--6--2-| x4
A|--2--4--6--2-|
D|-----4--6--2-|
    pm.........

Chorus:
(Listen to song for timing)

e|-------------------------------|
B|---------------4-------4-------|
G|--4-----------4-4-4-3-4-4------|
D|--4--4--6--2------x-x----------| x2
A|--2--4--6--2------2-1-----1-2--|
D|-----4--6--2--------------1-2--|

End:

e|---------------------------------|
B|---------------4-------4---------|
G|--4-----------4-4-4-3-4-4------4-|
D|--4--4--6--2------x-x----------4-|
A|--2--4--6--2------2-1-----1-2--2-|
D|-----4--6--2--------------1-2----|
comments
print report bad tab
I want to post or [tab]
guest
You may want to rate the tab now too:
select rating
Please do not post tabs as comments. Select "correction" instead!