Oops, an error
Loading. Please wait.

In Fates Hands Bass

version 1
version 1

Whole song

Interactive

5,184 views 6 this week
3 commentsread comments
1 2 3 4 5
x 3
add to favorites
launch autoscroll
font size
0
reset
guitar tuner
×
Best way to learn
"In Fates Hands"
Autoscroll
slow
fast
+/-
esc
set tempo
stop
Author
Difficulty
Tuning
  follow
novice
C G C F
-------------------------------------------------------------------------------
			     In Fate's Hands - The Red Jumpsuit Apparatus
-------------------------------------------------------------------------------


Tuning:Drop C

intro
00:09
|-------------------------------------|
|-------------------------------------|
|-5555555--5555555--5555555--5555888--|
|-------------------------------------|

|-------------------------------------|
|-------------------------------------|
|-111111--111111--111111--1111-3-3----|
|-------------------------------------|

Verse
00:24
|------------------------------------|
|------------------------------------|
|-1-1-1-1-1-1-1-1-1-1-1-1-1-1-1-3-3--|
|------------------------------------|

00:29
|------------------------------------|
|------------------------------------|
|-5-5-5-5-5-5-5-5-5-5-5-5-5-5-5-3-3--|
|------------------------------------|

00:33
|------------------------------------|
|------------------------------------|
|-1-1-1-1-1-1-1-1-1-1-1-1-1-1-1-3-3--|
|------------------------------------|

Chorus 2x
00:38
|------------------------------------------------------------|
|------------------------------------------------------------|
|-55555--55555--55555--555-77--11111--11111--11111-111-3-3---|
|------------------------------------------------------------|

intro

Verse

chorus 2x

bridge
01:48
|-------------------------------------|
|-------------------------------------|
|-5~--5-5-5-------------3~--3-3-3--1--|   2x
|------------3~--3-3-3----------------|

solo
02:27
|-----------------------------------------------------------------------|
|-----------------------------------------------------------------------|
|-4/555555-4/555555-4/555555-4/555888-0111111-0111111-0111111-0111-3-3--|
|-----------------------------------------------------------------------|

intro

chorus 2x

03:06
|---------------------------|
|---------------------------|
|-5-3-1-3-1111-3333-1111----|   3x
|---------------------------|

03:20
|---------------------------|
|---------------------------|
|-5555-5555-5555-555-5555---|
|---------------------------|
Suggest correction
Give kudos to tab author, rate the tab!
1 2 3 4 5
comments
print report bad tab
3 comments total.
0 reply
spencer Cr 507 Dec 18, 2006 02:29 PM

yeah it's good, but it can also be playd in standard. (you don't always have to tune down down to play is you play in standard)

0 reply
86trueno 10 Feb 05, 2007 11:14 AM

nice tab

0 reply
Midas_22 10 Mar 18, 2007 02:25 PM

i unno, the solo seems kind of off, i mean if you listen the second half of the solo is right but not the first half,, but everything else is good

guest
You may want to rate the tab now too:
select rating
Wanna post a correction for this tab? Suggest correction