Oops, an error
Loading. Please wait.

In Fates Hands bass

version 2
version 2

Whole song

Interactive

2,040 views 1 this week
3 commentsread comments
1 2 3 4 5
1 last vote to show rating
add to favorites
×
Save as Personal and add changes to this tab that will be seen only by you. Learn more ›
×
You can save this tab as Personal to edit and correct it or add notes. All changes will be seen only by you. Learn more »
launch autoscroll
font size
0
reset
guitar tuner
edit
Autoscroll
slow
fast
+/-
esc
set tempo
stop
Author
Tabbed by: Tommy
Email: d3athwish456@yahoo.com
Tuning: Standard (E, A, D, G)
AIM Screen name: Entersnh3r3

This is originally in Drop C. Here it is in Stanard for them lazy people like me. I'm 99.9% it's right.



Intro
G|------------------------------------|
D|------------------------------------|
A|-3333333--3333333--3333333--3333555-|
E|------------------------------------|

G|----------------------------------|
D|----------------------------------|
A|----------------------------------|
E|-444444--444444--444444--4444-6-6-|

Verse 1
G|-----------------------------------|
D|-----------------------------------|
A|-----------------------------------|
E|-4-4-4-4-4-4-4-4-4-4-4-4-4-4-4-6-6-|

G|------------------------------------|
D|------------------------------------|
A|-3-3-3-3-3-3-3-3-3-3-3-3-3-3-3-1-1--|
E|------------------------------------|

G|-----------------------------------|
D|-----------------------------------|
A|-----------------------------------|
E|-4-4-4-4-4-4-4-4-4-4-4-4-4-4-4-6-6-|

Chorus
G|----------------------------------------------------------|
D|----------------------------------------------------------|
A|-33333--33333--33333--333-55------------------------------|
E|------------------------------44444--44444--44444-444-6-6-|X2

Intro
G|------------------------------------|
D|------------------------------------|
A|-3333333--3333333--3333333--3333555-|
E|------------------------------------|

G|----------------------------------|
D|----------------------------------|
A|----------------------------------|
E|-444444--444444--444444--4444-6-6-|

Verse 2
G|-----------------------------------|
D|-----------------------------------|
A|-----------------------------------|
E|-4-4-4-4-4-4-4-4-4-4-4-4-4-4-4-6-6-|

G|-----------------------------------|
D|-----------------------------------|
A|-3-3-3-3-3-3-3-3-3-3-3-3-3-3-3-1-1-|
E|-----------------------------------|

G|-----------------------------------|
D|-----------------------------------|
A|-----------------------------------|
E|-4-4-4-4-4-4-4-4-4-4-4-4-4-4-4-6-6-|

Chorus
G|----------------------------------------------------------|
D|----------------------------------------------------------|
A|-33333--33333--33333--333-55------------------------------|
E|------------------------------44444--44444--44444-444-6-6-|X2

Bridge
G|------------------------------------|
D|------------------------------------|
A|-3*--3-3-3-------------1*--1-1-1--4-|  
E|------------1*--1-1-1---------------|X2

Soloish thing
G|----------------------------------------------------------------------|
D|----------------------------------------------------------------------|
A|-2/333333-2/333333-2/333333-2/333666----------------------------------|
E|-------------------------------------3444444-3444444-3444444-3444-6-6-|

Intro
G|------------------------------------|
D|------------------------------------|
A|-3333333--3333333--3333333--3333555-|
E|------------------------------------|

G|----------------------------------|
D|----------------------------------|
A|----------------------------------|
E|-444444--444444--444444--4444-6-6-|

Chorus
G|----------------------------------------------------------|
D|----------------------------------------------------------|
A|-33333--33333--33333--333-55------------------------------|
E|------------------------------44444--44444--44444-444-6-6-|X2

Ending
G|------------------------|
D|------------------------|
A|-3-1---1------1111------|   
E|-----4---4444------4444-|X3

G|-------------------------|
D|-------------------------|
A|-3333-3333-3333-333-3333-|
E|-------------------------|

Awesome song, gotta love it

            
            
Suggest correction
Creating personal tab
Creating personal tab
You can edit any tab online and save it as your Personal.

You can edit, replace or remove any tab part or add personal notes – all changes will be seen only by you.

Personal tabs can be accessed anytime from any device, even offline.
Learn more »
Give kudos to tab author, rate the tab!
1 2 3 4 5
comments
print report bad tab
3 comments total.
0 reply
roguebassist 176 Jan 11, 2007 11:14 AM

HYey, I messed up on the birdge, instead of the last notes being the 6 on E, it's 4 on E

0 reply
codeth1987 10 Mar 21, 2007 07:07 PM

Sounds great. 5 Mutha Funkin Stars!

0 reply
mister bass guy 10 Jun 01, 2007 07:24 PM

pretty good, i guess.

guest
You may want to rate the tab now too:
select rating
Wanna post a correction for this tab? Suggest correction