Oops, an error
Loading. Please wait.

In Fates Hands Tab

version 3
version 3

Whole song

Interactive

3,381 views 6 this week
3 commentsread comments
1 2 3 4 5
accurate
x 5
add to favorites
launch autoscroll
font size
0
reset
how to read this tab
guitar tuner
Autoscroll
slow
fast
+/-
esc
set tempo
stop
Help us to improve Ultimate-Guitar.com Take our survey!
×
Author
i didnt tab it teh guy that did the album tab did i just thought id make it easier to 
sorry for any confusions dont give me any credit.
i saw this band yesterday (2/19/07) and when they played this song i watched the guitars 
did a spot on perfect job so shout out to him its amazing


The Red Jumpsuit Apparatus
In Fate’s Hands
Don’t you fake it
2006

Intro
e---------------------|--------|
B---------------------|--------|
G-3-------3/7---------|--1212--|
D-5(x16)--5-8--6------|--x-x---|
A-3-------3/6--x(x16)-|--1010--|
E--------------4------|--------|
                      |dist.---|
Pre-Verse (now add distortion for the remainder of the song)(0:10)
e--------------------------------------|
B--------------------------------------|
G--3\5----\8/5----\3/5-----5----/-8----|
D--x-x(x4)-x-x(x4)-x/x(x4)-x(x4)--x(x4)|
A--1\3----\6/3----\1/3-----3----/-6----|
E--------------------------------------|

e---------------------------|
B---------------------------|
G--------------------12-----|
D-6-----6-----6------x-(x8)-|
A-x(x4)-x(x4)-x(x4)--10-----|
E-4-----4-----4-------------|

Verse (0:24)
(X2)  (0:33)
e------------------------------|
B------------------------------|
G--7/5----/7----/8----/12------|
D--x/x(x8)-x(x8)-x(x8)-x-(x8)--|
A--5/3----/5----/6----/10------|
E------------------------------|

Chorus (0:39)

e---------------------------------|
B---------------------------------|
G-5-----5------5-----5----/7------|
D-5(x4)-5x(x4)-5(x4)-5(x3)-7(x3)--|
A-3-----3------3-----3----/5------|
E---------------------------------|

e--------------------|
B--------------------|
G--------------------|
D-6-----6-----6------|
A-6(x4)-6(x4)-6(x4)--|
E-4-----4-----4------|

Post Chorus#1
(0:47)
e-----------------|
B-----------------|
G-5p3-------------|
D-----5p3---------|
A---------5p4p3p2-|
E-----------------|

Chorus (0:49)

Post-chorus#2 (0:56)
e----------------------|
B----------------------|
G--10b12(x4)-9~-15b17--|
D----------------------|
A----------------------|
E----------------------|

Pre-Verse (1:00)

Verse (x2) (1:14)
	   (1:24)

Chorus  	(1:29)
Post-chorus#1	(1:38)
Chorus		(1:40)
Post-chorus#3	(1:47)
e---------------|
B---------------|
G--10b12(x4)-9~-|
D---------------|
A---------------|
E---------------|

Bridge	(1:49)
e---------------------------|
B---------------------------|
G--5~-5/7/8~--8-3~-5/7/8~-7~|
D--x~-x/x/x~--x-x~-x-x-x~-x~|
A--3~-3/5/6~--6-1~-3/5/6~-5~|
E---------------------------|

(2:08)
e-------------------------------|
B-------------------------------|
G--5~-5/7/8~--8-3~-5/7/8~-7-8-5~|
D--x~-x/x/x~--x-x~-x-x-x~-x-x-x~|
A--3~-3/5/6~--6-1~-3/5/6~-5-6-3~|
E-------------------------------|

(Bass Line) (2:28)

Post-Chorus#1 	(2:36)
Pre-Verse 	(2:37)
Chorus		(2:46)
Post-Chorus#1	(2:55)
Chorus		(2:56)
Post-Chorus#4	(3:04)
e--------------|
B--------------|
G-12-----12----|
D-x-(x2)-x(x2)-|
A-10-----10----|
E--------------|

Bridge#2 (3:06)
e---------------------------------------|
B---------------------------------------|
G--5----/7----/8-----/10----/12----/13--|
D--x(x6)-x(x6)-x(x16)-x-(x8)-x-(x4)-x---|
A--3----/5----/6-----/8-----/10----/11--|
E---------------------------------------|

Outro (3:20)
e--------------------------------------|
B--------------------------------------|
G-5-----5-----5-----5-----4-----5------|
D-5(x4)-5(x4)-5(x4)-5(x2)-4(x2)-5(x3)--|
A-3-----3-----3-----3-----2-----3------|
E--------------------------------------|
Suggest correction new What's this?
You can suggest a correction to this tab. Community and Mods will review your correction and vote to approve or reject it.
comments
print report bad tab
3 comments total.
0 reply
spencer Cr 787 wrote on February 20 2007, 08:38 pm

dude you just stole Allan's deads tab, you jackass. god at least put down that you didn't tab it out, that would at least be curdious.

0 reply
jmorr212 47 wrote on March 5 2007, 03:39 am

dude are u ****ing retarded he did say that...if u read the top it says dont give me any credit so stfu and get ur facts right!

0 reply
spencer Cr 787 wrote on March 5 2007, 05:43 pm

whoops sorry. i'm not that god at noticing things, sorry dude

guest
You may want to rate the tab now too:
select rating
Please do not post tabs as comments. Select "correction" instead!