Oops, an error
Loading. Please wait.

In Fates Hands Tab

version 4
version 4

Whole song

Interactive

7,727 views 1 this week
4 commentsread comments
1 2 3 4 5
accurate
x 7
add to favorites
launch autoscroll
font size
0
reset
how to read this tab
guitar tuner
Tab Pro tools
  • play this tab
  • loop segment
  • change instrument
  • show fretboard
  • metronome
×
Best way to learn
"In Fates Hands"
Autoscroll
slow
fast
+/-
esc
set tempo
stop
Contributor
Difficulty
Tuning
intermediate
C G C F A D
In Fate’s Hands
Red Jumpsuit Apparatus

DROP C!

Well it’s not the best but I cant find another one so yeah…. Email corrections foos

Intro thing (really wrong) (acouaticy)
|---------------------------------------------------------------------------|
|---------------------------------------------------------------------------|
|-77777777777777777777/10-1010101010----------------------------------------|
|-77777777777777777777/10-1010101010---------8888888888888888888888--10--10-|
|-55555555555555555555/8--8-8-8-8-8----------8888888888888888888888--10—-10-|
|--------------------------------------------8888888888888888888888--10—-10-|
                                                                   Distortion
Riff A i guess (Very correct i think)
|----------------------------------------------------------------------------|
|----------------------------------------------------------------------------|
|--5/777-777---10/777-777---5/777-777---5/777-10/7---------------------------|
|----------------------------------------------------------------------------|
|--3/555-555---8-/555-555---3/555-555---3/555-8-/5---------------------------|
|----------------------------------------------------------------------------|

Riff A continued i guess (also correct i think)
|----------------------------------------------------------------------------|
|----------------------------------------------------------------------------|
|----------------------------------------------------------------------------|
|-7/8-8-8-8-8-8--7/8-8-8-8-8-8--7/8-8-8-8-8-8--7/8-8-8---10-10---------------|
|----------------------------------------------------------------------------|
|-7/8-8-8-8-8-8--7/8-8-8-8-8-8--7/8-8-8-8-8-8--7/8-8-8---10-10---------------|
|
|second guitar
|----------------------------------------------------------------------------|
|--------------------------------------------------------1515151515151515----|
|--------------------------------------------------------1414141414141414----|
|--------------------------------------------------------1212121212121212----|
|----------------------------------------------------------------------------|
|----------------------------------------------------------------------------|

Pause

Riff B
|----------------------------------------------------------------------------|
|----------------------------------------------------------------------------|
|-10-9-1010101010-999999-1010101010-14141414141414---------------------------|
|----------------------------------------------------------------------------|
|-8--7-8-8-8-8-8--777777-8-8-8-8-8--12121212121212---------------------------|
|----------------------------------------------------------------------------|

Pause

Riff C
|----------------------------------------------------------------------------|
|----------------------------------------------------------------------------|
|-10-9-1010101010-999999-1414141414-19191919191919---------------------------|
|----------------------------------------------------------------------------|
|-8--7-8-8-8-8-8--777777-1212121212-17171717171717---------------------------|
|----------------------------------------------------------------------------|

Chorus (very sure)
|----------------------------------------------------------------------------|
|----------------------------------------------------------------------------|
|-7757---7757---7757---775/107-----------------------------------------------|
|-7757---7757---7757---775/107----8878---8878---8878---887--1010-------------|
|-5535---5535---5535---553/8-5----8878---8878---8878---887--1010-------------|
|---------------------------------8878---8878---8878---887--1010-------------|
|
|second guitar
|----------------------------------------------------------------------------|
|----------------------------------------------------------------------------|
|----------------------------------------------------------------------------|
|------------------------------------------------------10-87-----------------|
|------------------------------------------------------------10-87-----------|
|------------------------------------------------------------------12-10-----|
|
|Second guitar Second time (better than nothing)
|-----------------------------------------------------------------------------|
|------------------------------------------------------15-15-15---------------|
|------------------------------------------------------17^17^17^-17-17p15-----|
|-------------------------------------------------------------------------17~-|
|-----------------------------------------------------------------------------|
|-----------------------------------------------------------------------------|

2nd guitar before riff c second chorus
|----------------------------------------------------------------------------|
|----------------------------------------------------------------------------|
|----------------------------------------------------------------------------|
|----------------------------------------------------------------------------|
|-555555555555---------------------------------------------------------------|
|----------------------------------------------------------------------------|
PM............


bridge thing (ehhh... decent)  fiddle with these
|----------------------------------------------------------------------------|
|----------------------------------------------------------------------------|
|-7~~~----9/10~~~~----109~~~~---75~~~~---7~~~~---109~~~----------------------|
|----------------------------------------------------------------------------|
|-5~~~----7/8~~~~~----8-7~~~~---53~~~~---5~~~~---8-7~~~----------------------|
|----------------------------------------------------------------------------|

bridge 2
|----------------------------------------------------------------------------|
|----------------------------------------------------------------------------|
|-7~~~----9/10~~~~----109~~~~---75~~~~---7~~~~---109~~~---7-5-7~~~-----------|
|----------------------------------------------------------------------------|
|-5~~~----7/8~~~~~----8-7~~~~---53~~~~---5~~~~---8-7~~~---5-3-5~~~-----------|
|----------------------------------------------------------------------------|

Cool screamy bridge
|----------------------------------------------------------------------------|
|----------------------------------------------------------------------------|
|-5/777-777--10/777-777---5/777-777---5/777-10/7---9/101010-101010-10/121212-|
|----------------------------------------------------------------------------|
|-3/555-555--8-/555-555---3/555-555---3/555-8-/5---7/8-8-8--8-8-8--8/-101010-|
|----------------------------------------------------------------------------|

screamy bridge continued
|----------------------------------------------------------------------------|
|----------------------------------------------------------------------------|
|-121212/141414-141414-14/1919191919191919-----------------------------------|
|----------------------------------------------------------------------------|
|-101010/121212-121212-12/1717171717171717-----------------------------------|
|----------------------------------------------------------------------------|

outro thing
|----------------------------------------------------------------------------|
|----------------------------------------------------------------------------|
|-/10101010/99999999/10101010/99999999/10101010/1212121212121212-------------|
|----------------------------------------------------------------------------|
|-/88888888/77777777/88888888/77777777/88888888/1010101010101010-------------|
|----------------------------------------------------------------------------|

second guitar near end of song
|---------x-10-x-10----------------------------------------------------------|
|---------x-10-x-10----------------------------------------------------------|
|---------x-10-x-10----------------------------------------------------------|
|----------------------------------------------------------------------------|
|----------------------------------------------------------------------------|
|----------------------------------------------------------------------------|

very ending
|----------------------------------------------------------------------------|
|----------------------------------------------------------------------------|
|-7757--7757--7757--7757-777-------------------------------------------------|
|-7757--7757--7757--7757-777-------------------------------------------------|
|-5535--5535--5535--5535-555-------------------------------------------------|
|----------------------------------------------------------------------------|
well thats it.  i really dont want to write the order but if you need it email me.
everything should be here
comments
print report bad tab
4 comments total. Showing first comments.
0 reply
spencer Cr wrote on March 20 2007, 07:21 am

looks ok, i personally like playing the standard tuning version, (just b/c of the tuning) but this LOOKS good. i haved tried it but it looks good.

0 reply
ben.jammin92 wrote on March 20 2007, 07:14 pm

a

0 reply
mikko 9119 wrote on September 26 2007, 04:11 pm

this is perfect!! why is it only 2 stars. because of the tuning. yeah, they play in drop c, get with it people

I want to post or [tab]
guest
You may want to rate the tab now too:
select rating
Please do not post tabs as comments. Select "correction" instead!