Oops, an error
Loading. Please wait.

Justify Chords

version 1
version 1

Whole song

Interactive

12,105 views 9 this week
no commentswrite comment
1 2 3 4 5
please rate
add to favorites
launch autoscroll
font size
0
reset
transpose
0
reset
display chords
guitar tuner
Autoscroll
slow
fast
+/-
esc
set tempo
stop
Help us to improve Ultimate-Guitar.com Take our survey!
×
Author
paramore_fans 86,838
The Red Jumpsuit Apparatus
Justify
Don't You Fake It
2007
Submitted by: paramore_fans@yahoo.com

Key: Eb

Tuning: Standard EADGBe

Beat: 3/4

Chords used:
Cm7 -  x313xx or x35343
Cm -   x35543
G# -   466544
Bb -   x13331
Gm -   355333


Intro: x means palm mute

Guitar 1: x2
      Cm7
      x4             x4
e|-------------|-------------|
B|-------------|-------------|
G|---------3-3-|---------3-3-|
D|---1-0-1-----|---1-0-1-----|
A|-3-----------|-------------|
E|-------------|-4-----------|
   x x x x x x   x x x x x x


Guitar 2: Cm--G#--Bb--


Verse 1: Do intro riff
Cm7
Once there was a time
when we could learn
G#
all the simple pleasantries
a follower should yearn
    Cm7
now all that I can do
is watch them burn
    G#
and wish that I could
save them all, or just one


Refrain:

Growl:
Cm
See the Fake

Sing:
         G#
everyday shaking
hands of men, promising the end

Growl:
Cm
Hear Him Speak

Sing:
                  G#
of all the things that we
need to hear to adhere


Bass Lines: in refrain
G|---------------3-------0---3-------0---3---5---------------8---|
D|-----------------1-0-1---1---1-0-1---3---5---3-1-3-----1-3---8-|
A|-3--3--3--6-5--------------------------------------1-3---------| x2
E|---------------------------------------------------------------|


Chorus 1:
Cm
Justify, your secrecies
Bb          Eb
that surmise your cries
  Bb
I see the way you
look around the bend
               G#   Bb
is it going to end, when?


Interlude: Cm--


Verse 2: Do intro riff
    Cm7
The visions that I've
seen have left me torn
   G#
between the resurrection
and the prophecy unborn
  Cm7
I think that I will
document the fall
    G#
and say I hate to say it
but I told you all


(Repeat Chorus 1)


Chorus 2:
Cm
Justify, your secrecies
Bb          Eb
that surmise your lies
  Bb
I see the way you
look around the bend
               G# Bb
is it going to end


Bridge:
Cm           Bb
  Your side, choose wise
G#     Fm
  your side
Cm                Bb
  Watch me change in time
G#                 Bb
  When you whispher
Cm              Bb
  Used to blame it's my
G#(hold)
message clearer


Guitar 2:
         Cm             Bb         G#               Gm
e|-------------------|-------|--------------|-3----------------|
B|-----4-----3-----4-|-----4-|-----4-----4--|---6-4-6--4h6p4---|
G|---5-----5-----5---|---3---|---5-----5----|----------------5-|
D|-------------------|-------|--------------|------------------|
A|-3-----3-----3-----|-1-----|--------------|------------------|
E|-------------------|-------|-4-----4------|------------------|

      Cm                Bb        G#          Bb
e|---3-------3-----3-|----3-|-----6-----6-|-----6---|
B|---4---3---4-----4-|3---4-|---4---4---4-|---4-----|
G|-----3---3-----3---|--3---|---------5---|---------|
D|-------------------|------|-------------|---------|
A|-3-----------3-----|------|-------------|---------|
E|-------------------|------|-4-----------|-6-------|

      Cm                Bb   G#
e|---3-------3-----3-|----3-|-6-|
B|---4---3---4-----4-|3---4-|-4-|
G|-----3---3-----3---|--3---|-5-|
D|-------------------|------|-6-|
A|-3-----------3-----|------|-6-|
E|-------------------|------|-4-|


Bass:
          Cm            Bb         G#              Gm
G|-------------------|-------|-------------|-0--------------|
D|-------------------|-------|-------------|---3-1-3--1h3---|
A|-3-3-3-3-3-3-3-3-3-|-1-1-1-|-------------|--------------3-|
E|-------------------|-------|-4-4-4-4-4-4-|----------------|

          Cm            Bb              G#
G|-------------------|-------|-------------------------|
D|-------------------|-------|-------------------------|
A|-3-3-3-3-3-3-3-3-3-|-1-1-1-|-------------------------|
E|-------------------|-------|-4-4-4-4-4-4-4-4-4-4-4-4-|

          Cm            Bb     G#
G|-------------------|-------|---|
D|-------------------|-------|---|
A|-3-3-3-3-3-3-3-3-3-|-1-1-1-|---|
E|-------------------|-------|-4-|

(Repeat Chorus 1 and 2)
Suggest correction
What's this?
You can suggest a correction to this tab. Community and Mods will review your correction and vote to approve or reject it.
comments
We did not receive enough feedback on this tab! Please rate:
print report bad tab
1 2 3 4 5
guest
You may want to rate the tab now too:
select rating
Please do not post tabs as comments. Select "correction" instead!