Oops, an error
Loading. Please wait.

Justify Tab

version 1
version 1

Intro

Whole song

Interactive

5,127 views 1 this week
1 commentread comment
1 2 3 4 5
worth learning
x 2
add to favorites
launch autoscroll
font size
0
reset
how to read this tab
guitar tuner
Tab Pro tools
  • play this tab
  • loop segment
  • change instrument
  • show fretboard
  • metronome
Autoscroll
slow
fast
+/-
esc
set tempo
stop
Contributor
Difficulty
Tuning
novice
D A D G B E
ok, so if your wondering how to play this intro... this is pretty close, i think....


E|----------------------|   x4
B|----------------------|
G|----0-----3-3---------|
D|------1-1-------------|
A|----------------------|
D|--1-------------------|

E|----------------------|   x4
B|----------------------|
G|----------------------|
D|----5-------8-8-------|
A|-------6-6------------|
D|--6-------------------|


or u can do it this way, they both sound right


E|----------------------|   x4
B|----------------------|
G|-----------3-3--------|
D|----1-1-1-------------|
A|----------------------|
D|--1-------------------|

E|----------------------|   x4
B|----------------------|
G|----------------------|
D|-----------8-8--------|
A|----6-6-6-------------|
D|--6-------------------|


if u have any corrections...or questions just e-mail at bobcgabe@aim.com
comments
We did not receive enough feedback on this tab! Please rate:
print report bad tab
1 2 3 4 5
1 comment total.
0 reply
=(Cody=) wrote on June 13 2009, 10:12 pm

intro:
those are 10's, and it's drop C
D|----------------------| x4
A|----------------------|
F|----------------------|
C|-------1010-----------|
G|----878---------------|
C|--0-------------------|

E|----------------------| x4
B|----------------------|
G|----------------------|
D|-------1010-----------|
A|----878---------------|
D|--8-------------------|

I want to post or [tab]
guest
You may want to rate the tab now too:
select rating
Please do not post tabs as comments. Select "correction" instead!