Oops, an error
Loading. Please wait.

Justify Tab

version 2
version 2

Whole song

Interactive

10,309 views 9 this week
3 commentsread comments
1 2 3 4 5
worth learning
x 6
add to favorites
launch autoscroll
font size
0
reset
how to read this tab
guitar tuner
Tab Pro tools
  • play this tab
  • loop segment
  • change instrument
  • show fretboard
  • metronome
×
Best way to learn
"Justify"
Autoscroll
slow
fast
+/-
esc
set tempo
stop
Contributor
Difficulty
Tuning
intermediate
D A D G B E
Justify (drop C)
Red Jumpsuit Apparatus
don't you fake it

Intro: Rhythm (x4)
D|-------------------------|
A|-------------------------|
F|-------------------------|
C|---757---------313-------|
G|--5---5(x4)---1---1(x4)--|
C|-0-----------0-----------|
   ......      ......

Intro: Lead
D|----------------------|
A|----------------------|
F|7------3------5-------|
C|7(x5)--3(x5)--x(x10)--|
G|5------1------3-------|
C|----------------------|

Verse: Rhythm (x2)
D|-------------------------|
A|-------------------------|
F|-------------------------|
C|---757---------313-------|
G|--5---5(x4)---1---1(x4)--|
C|-0-----------0-----------|
   ......      ......

Verse: lead
D|---------------------------|
A|---------------------------|
F|---------------------------|
C|7-7--7--777----3-3-3--333--|
G|5-5--5--555----1-1-1--111--|
C|0-0--0--000----0-0-0--000--|

Verse: Both
D|-------------------------------------|
A|-------------------------------------|
F|------------7------10-----9-----10*--|
C|-----0-0-0--7(x3)--x-(x8)-x(x8)------|
G|-----0-0-0--5------8------7----------|
C|-----0-0-0---------------------------|

D|----------------------------------------------|
A|----------------------------------------------|
F|-----------7-----5----/-7----/-9----/-10------|
C|-0-0-0-14*-7(x3)-x(x4)/-x(x4)/-x(x4)/-x-(x4)--|
G|-0-0-0-----5-----3----/-5----/-7----/-8-------|
C|-0-0-0----------------------------------------|

Chorus: Both
D|--------------------------------------------------------------|
A|--------------------------------------------------------------|
F|--------------10-----9------------3--------5------------------|
C|-0-0--0-0-0---x-(x4)-x(x4)--3-----3(x6)----5(x8)----3333/555--|
G|-0-0--0-0-0---8------7------3(x6)-1----873-3-----53-3333/555--|
C|-0-0--0-0-0-----------------3-----------------------3333/555--|

Post-chorus
D|--1----1-----1----|
A|--------3-----3---|
F|---------2-----2--|
C|-0-0------0-------|
G|------------------|
C|------------------|

Verse

Chorus (x2)

Bridge
D|--1-1---1----|--|--5--3--1--3-1h3p1---|---1----1----1---|--|---1-14*|
A|-----3---3---|--|-------------------h3|---------3----3--|--|---3----|
F|------2---2--|x2|---------------------|----------2----2-|x2|---2----|
C|-0-0---0-----|--|---------------------|--0--0-----0-----|--|---0----|
G|-------------|--|---------------------|-----------------|--|--------|
C|-------------|--|---------------------|-----------------|--|--------|

Chorus

Outro:
D|-----------------|
A|-----------------|
F|--10-----14------|
C|--x-(x6)-x-(x6)--|
G|--8------12------|
C|-----------------|
PM  .

e|--------------------------------------------------------------|
B|-----------------------------------------------------13*-15*--|
G|------10-----9---------------5--------------------------------|
D|0-0---x-(x5)-x(x5)-3---------5(x5)----33333/55555-0-----------|
A|0-0---8------7-----3(x5)-873-3-----53-33333/55555-0-----------|
E|0-0----------------3------------------33333/55555-0-----------|
PM. .
comments
print report bad tab
3 comments total.
0 reply
tackledog wrote on May 5 2007, 09:35 pm

not enough

0 reply
2late2know wrote on November 30 2007, 12:32 pm

Why does it say the tuning is drop D, but in the actual tab it says drop C?

0 reply
3 days grace14 wrote on January 23 2008, 10:42 pm

man you are close but you are definatly a bit off nice try

I want to post or [tab]
guest
You may want to rate the tab now too:
select rating
Please do not post tabs as comments. Select "correction" instead!