Oops, an error
Loading. Please wait.

Justify Tab

version 3
version 3

Whole song

Interactive

6,003 views 9 this week
4 commentsread comments
1 2 3 4 5
worth learning
x 4
add to favorites
launch autoscroll
font size
0
reset
how to read this tab
guitar tuner
Autoscroll
slow
fast
+/-
esc
set tempo
stop
Help us to improve Ultimate-Guitar.com Take our survey!
×
Author
Difficulty
intermediate
INTRO:

LEAD: (00:00-00:14)
E|-------------|      E|-------------|
B|-------------|      B|-------------|
G|-------------|      G|-------------|
D|---------8-8-| 4X   D|---------8-8-| 4X   
A|---6-5-6-----|      A|---6-5-6-----|
E|-8-----------|      E|-4-----------|
   . . . . . .           . . . . . .

E|-------------|      E|-------------|      E|-------------|      
B|-------------|      B|-------------|      B|-------------|      
G|-------------|      G|-------------|      G|-------------|      
D|---------8-8-| 4X   D|---------8-8-| 2X   D|-8-----------|      
A|---6-5-6-----|      A|---6-5-6-----|      A|-8-----------|      
E|-8-----------|      E|-4-----------|      E|-6-----------|      
   . . . . . .           . . . . . . 
RHYTHM: (00:08-00:14)
E|------------------------|
B|------------------------|
G|--55555-----------------|
D|--55555-----6666—-8888--| 
A|--33333-----6666-—8888--|
E|------------4444—-6666--|

VERSE: (00:14-00:30)

LEAD: 2X
E|-------------|      E|-------------|
B|-------------|      B|-------------|
G|-------------|      G|-------------|
D|---------8-8-| 4X   D|---------8-8-| 4X   
A|---6-5-6-----|      A|---6-5-6-----|
E|-8-----------|      E|-4-----------|
   . . . . . .           . . . . . .

RHYTHM: 2X
E|-------------|      E|-------------|
B|-------------|      B|-------------|
G|--5—-5--5----|      G|-------------|
D|--5—-5--5----| 4X   D|--6--6--6----| 4X   
A|--3--3--3----|      A|--6--6--6----|
E|-------------|      E|--4--4--4----|
       .  .                  .  .

REFRAIN: (00:31-00:46)

LEAD:
E|-------------|      E|-------------|
B|-------------|      B|-------------|
G|--5—-5--5----|      G|-------------|
D|--5—-5--5----| 4X   D|---------8-8-| 4X   
A|--3--3--3----|      A|---6-5-6-----|
E|-------------|      E|-4-----------|
       .  .              . . . . . .

E|-------------|      E|-------------|      E|-------------|
B|-------------|      B|-------------|      B|-------------|
G|--5—-5--5----|      G|-------------|      G|-------------|
D|--5—-5--5----| 4X   D|---------8-8-| 2X   D|-8888--------|
A|--3--3--3----|      A|---6-5-6-----|      A|-8888--------|
E|-------------|      E|-4-----------|      E|-6666--------|
       .  .                 

RHYTHM: 2X
E|-------------|      E|-0-00--00-00--00-00--00-00-|
B|-------------|      B|-5-55--55-55--55-55--55-55-|
G|--5—-5--5----|      G|---------------------------|
D|--5—-5--5----| 4X   D|---------------------------| 
A|--3--3--3----|      A|---------------------------|
E|-------------|      E|---------------------------|
       . .

E|-------------|      E|-0-00—-0----------------------|
B|-------------|      B|-5-55--57-77--78-88—-81010-10-|
G|--5—-5--5----|      G|------------------------------|
D|--5—-5--5----| 4X   D|------------------------------| 
A|--3--3--3----|      A|------------------------------|
E|-------------|      E|------------------------------|
       .  .

CHORUS: (00:47-1:02)

LEAD AND RHYTHM:
E|------------------------------------------|
B|------------------------------------------| 
G|--5-5-5-7-8-8-8-10-98---------------------|   
D|--5-5-5-7-8-8-8-10-98-8-8-8-8-6-6-8-8-----| 2X
A|--3-3-3-5-6-6-6-8--76-8-8-8-8-6-6-8-8-----|  
E|----------------------6-6-6-6-4-4-6-6-----|

VERSE (1:03-1:17)
REFRAIN (1:18-1:32)
CHORUS 2X (1:33-2:03)

BRIDGE: (2:04-2:31)

LEAD:
E|---------------------------------------------|
B|--4-3--3-4--4-3--3-4--4-3--3-4--4-3--875753--|   
G|---------------------------------------------|   
D|---------------------------------------------|
A|---------------------------------------------|  
E|---------------------------------------------|

E|-----------------------------------|
B|-----------------------------------| 
G|-----------------------------------|   
D|--------------------------------6--|
A|--4-3--3-4--4-3--3-4--4-3--3-4--6--|  
E|--------------------------------4--|

RHYTHM:
E|---------------------------------------------|
B|---------------------------------------------| 
G|-5-------------------------------------------|   
D|-5-------------------------------------------|
A|-3-------------------3-----------------------|  
E|-----------4--------------------4----1097975-|

E|---------------------------------------------|
B|---------------------------------------------| 
G|-5-------------------------------------------|   
D|-5------------------------------6------------|
A|-3-------------------3----------6------------|  
E|-----------4--------------------4------------|


CHORUS 3X (2:35-3:21)
Suggest correction
comments
print report bad tab
4 comments total. Showing first comments.
0 reply
HH_Emo_666 242 wrote on January 24 2008, 04:51 pm

this song is in drop c

0 reply
trivium99 803 wrote on March 25 2008, 07:07 am

It's OK it does need to be played in C to be correct though

0 reply
damien-fr 128 wrote on April 4 2009, 01:24 pm

Does anyone know where the pinch harmonics are?

guest
You may want to rate the tab now too:
select rating
Please do not post tabs as comments. Select "correction" instead!