Oops, an error
Loading. Please wait.

Misery Loves Its Company Tab

version 1
version 1

Interactive

5,878 views 9 this week
3 commentsread comments
1 2 3 4 5
accurate
x 3
add to favorites
launch autoscroll
font size
0
reset
how to read this tab
guitar tuner
Autoscroll
slow
fast
+/-
esc
set tempo
stop
Help us to improve Ultimate-Guitar.com Take our survey!
×
Author
Difficulty
Tuning
intermediate
D A D G B E
Misery loves It's Company
The Red Jumpsuit Apparatus
Don't you fake it
Drop D

Intro:
Rhythm (no distortion)                      |Add dist.-|
|------------------------------------------------------|
|---------------------------------------------------7--|
|-7777777777777777-5555555555555555-99999999-999999-9^-|
|-7777777777777777-5555555555555555-99999999-xxxxxx----|
|-5555555555555555-3333333333333333-77777777-777777----|
|------------------------------------------------------|

Pre-verse: (x2)
Rhythm 
|-----------------------------------------|
|-----------------------------------------|
|------------------7777-5555-14-12-11/12--|
|--4-----2---4-3-2-xxxx-xxxx-x--x--x--x---|
|--4-----2---4-3-2—5555-3333-12-10-9-/10--|
|--4-----2---4-3-2------------------------|

Lead
|-----------------------------------------|
|----6--------------------8---------------|
|----8^------------------10^--------------|
|-----------------------------------------|
|-----------------------------------------|
|-----------------------------------------|

Verse
Rhythm
|---------|
|---------|
|--7---5--|
|--x---x--|(x4)
|--5---3--|
|---------|

Lead (after first rhythm)
|--------------|----|-----------------|
|--------------|----|-----------------|
|--------------|----|-------------7-5-|
|--7-5---5-7-5-|(x4)|-7-5---5-7-5-7-5-|
|------7-------|----|-----7-------5-3-|
|--------------|----|-----------------|
PM . . . . . .  

Chorus:
|------------------------------------|
|------------------------------------|
|--1212121212121212121212121212-1414-|
|--x-x-x-x-x-x-x-x-x-x-x-x-x-x--x-x--|(x2)
|--1010101010101010101010101010-1212—|
|------------------------------------|

|----------------------------------------------------------------|
|----------------------------------------------------------------|
|-12121212121212121212121212121212--1414141414141414-------------|
|-x-x-x-x-x-x-x-x-x-x-x-x-x-x-x-x---x-x-x-x-x-x-x-x--0-000-0-000-|
|-10101010101010101010101010101010--1212121212121212-0-000-0-000-|
|----------------------------------------------------0-000-0-000-|
PM                                                     ...   ...

Verse (Rhythm x4) (Lead x1)

Chorus (x2)

Bridge
Rhythm
|---------|
|---------|
|-12-9-7--|
|-x--x-x--|(x3)
|-10-7-5--|
|---------|

Lead (quiet) (x2)
|-------------------------------------------------------|
|-12-1212-------10-1010--------12-1212-------13-1313----|
|---------12------------12-------------12------------12-|
|-------------------------------------------------------|
|-------------------------------------------------------|
|-------------------------------------------------------|

Rhythm “Into dust” (x2)
|---------------------------------------|
|---------------------------------------|
|---------------------------------------|
|--55555555-99999999-77777777-66666666--|
|--55555555-99999999-77777777-66666666--|
|--55555555-99999999-77777777-66666666--|

Lead “Into Dust” (loud) 
|-------------------------------------------------------|
|-12-1212-------10-1010--------12-1212-------13-1313----|
|---------12------------12-------------12------------12-|(x2)
|-------------------------------------------------------|
|-------------------------------------------------------|
|-------------------------------------------------------|

|-----|
|--5--|
|--7^-|
|-----|
|-----|
|-----|

Chorus (w/ a lot of distortion)

Chorus

Outro:
Rhythm 
|-----------------------------------------|
|-----------------------------------------|
|------------------7777-5555-14-12-11/12--|
|--4-----2---4-3-2-xxxx-xxxx-x--x--x--x---|
|--4-----2---4-3-2—5555-3333-12-10-9-/10--|
|--4-----2---4-3-2------------------------|

Lead
|-----------------------------------------|
|----6--------------------8---------------|
|----8^------------------10^--------------|
|-----------------------------------------|
|-----------------------------------------|
|-----------------------------------------|

Either guitar
|--------------|----|----------|----|------|
|--------------|----|----------|----|------|
|--14-12-11/12-|----|-14-12-11-|----|--12--|
|--x--x--x--x--|(x2)|-x--x--x--|(x3)|--12--|
|--12-10-9-/10-|----|-12-10-9--|----|--10--|
|--------------|----|----------|----|------|

Enjoy
(email me if there are any mistakes at joanne@leapsafely.com)
Suggest correction
What's this?
You can suggest a correction to this tab. Community and Mods will review your correction and vote to approve or reject it.
comments
We did not receive enough feedback on this tab! Please rate:
print report bad tab
1 2 3 4 5
3 comments total.
0 reply
spencer Cr 788 wrote on October 18 2006, 07:16 am

you messed up on the intro a little bit, fix that up

0 reply
Jamie90 54 wrote on December 29 2006, 06:44 am

I think this song's in C?

0 reply
Lissiex 44 wrote on May 19 2009, 11:48 pm

Does not sound right.

guest
You may want to rate the tab now too:
select rating
Please do not post tabs as comments. Select "correction" instead!